999
DXF file: C:\prouser\laser_misumi\drawings\bearing_bracket_assy_REV_1.dxf
999
Pro/ENGINEER 2009360 by Parametric Technology Corporation
  0
SECTION
  2
HEADER
  9
$ACADVER
  1
AC1018
  9
$DWGCODEPAGE
  3
ANSI_1252
  9
$EXTMAX
 10
17.0
 20
11.0
 30
0.0
  9
$EXTMIN
 10
0.0
 20
0.0
 30
0.0
  9
$LIMMIN
 10
0.0
 20
0.0
  9
$LIMMAX
 10
17.0
 20
11.0
  9
$VIEWCTR
 10
8.5
 20
5.5
  9
$VIEWSIZE
 40
11.0
  9
$CLAYER
  8
0
  9
$LTSCALE
 40
0.935
  9
$CELTYPE
  6
BYLAYER
  9
$DIMSCALE
 40
1.0
  9
$DIMASZ
 40
0.1875
  9
$DIMEXO
 40
0.10625
  9
$DIMDLI
 40
0.646
  9
$DIMEXE
 40
0.306
  9
$DIMCEN
 40
0.153
  9
$DIMLFAC
 40
1.0
  9
$DIMBLK
  1
_FILLED
  9
$DIMTXT
 40
0.15625
  9
$DIMTOL
 70
0
  9
$DIMLIM
 70
0
  9
$DIMTFAC
 40
1.0
  9
$PDMODE
 70
3
  9
$PDSIZE
 40
0.3125
  9
$HANDSEED
  5
3CC
  9
$TILEMODE
 70
1
  9
$MEASUREMENT
 70
0
  9
$INSUNITS
 70
1
  0
ENDSEC
  0
SECTION
  2
CLASSES
  0
CLASS
  1
ACDBDICTIONARYWDFLT
  2
AcDbDictionaryWithDefault
  3
AutoCAD 2000
 90
0
 91
1
280
0
281
0
  0
CLASS
  1
ACDBPLACEHOLDER
  2
AcDbPlaceHolder
  3
AutoCAD 2000
 90
0
 91
1
280
0
281
0
  0
CLASS
  1
LAYOUT
  2
AcDbLayout
  3
AutoCAD 2000
 90
0
 91
0
280
0
281
0
  0
CLASS
  1
TABLESTYLE
  2
AcDbTableStyle
  3
ObjectDBX Classes
 90
2047
 91
1
280
0
281
0
  0
CLASS
  1
ACAD_TABLE
  2
AcDbTable
  3
ObjectDBX Classes
 90
1025
 91
5
280
0
281
1
  0
ENDSEC
  0
SECTION
  2
TABLES
  0
TABLE
  2
VPORT
  5
8
100
AcDbSymbolTable
 70
2
  0
VPORT
  5
1F4
100
AcDbSymbolTableRecord
100
AcDbViewportTableRecord
  2
*ACTIVE
 70
0
 10
0.0
 20
0.0
 11
1.0
 21
1.0
 12
8.5
 22
5.5
 13
0.0
 23
0.0
 14
1.0
 24
1.0
 15
0.0
 25
0.0
 16
0.0
 26
0.0
 36
1.0
 17
0.0
 27
0.0
 37
0.0
 40
11.0
 41
1.5454545455
 42
50.0
 43
0.0
 44
0.0
 50
0.0
 51
0.0
 71
0
 72
100
 73
1
 74
1
 75
0
 76
0
 77
0
 78
0
  0
ENDTAB
  0
TABLE
  2
LTYPE
  5
5
100
AcDbSymbolTable
 70
6
  0
LTYPE
  5
14
100
AcDbSymbolTableRecord
100
AcDbLinetypeTableRecord
  2
BYBLOCK
 70
0
  3

 72
65
 73
0
 40
0.0
  0
LTYPE
  5
15
100
AcDbSymbolTableRecord
100
AcDbLinetypeTableRecord
  2
BYLAYER
 70
0
  3

 72
65
 73
0
 40
0.0
  0
LTYPE
  5
16
100
AcDbSymbolTableRecord
100
AcDbLinetypeTableRecord
  2
CONTINUOUS
 70
64
  3
Solid line
 72
65
 73
0
 40
0.0
  0
LTYPE
  5
1F5
100
AcDbSymbolTableRecord
100
AcDbLinetypeTableRecord
  2
CENTER
 70
64
  3
____ _ ____ _ ____ _ ____ _ ____ _ ____ _ ____
 72
65
 73
4
 40
0.6
 49
0.375
 74
0
 49
-0.075
 74
0
 49
0.075
 74
0
 49
-0.075
 74
0
  0
LTYPE
  5
1F6
100
AcDbSymbolTableRecord
100
AcDbLinetypeTableRecord
  2
HIDDEN
 70
64
  3
- - - - - - - - - - - - - - - - - - - -
 72
65
 73
2
 40
0.2
 49
0.1
 74
0
 49
-0.1
 74
0
  0
LTYPE
  5
1F7
100
AcDbSymbolTableRecord
100
AcDbLinetypeTableRecord
  2
PHANTOM
 70
64
  3
_____ _ _ _____ _ _ _____ _ _ _____
 72
65
 73
6
 40
0.8
 49
0.45
 74
0
 49
-0.05
 74
0
 49
0.1
 74
0
 49
-0.05
 74
0
 49
0.1
 74
0
 49
-0.05
 74
0
  0
LTYPE
  5
1F8
100
AcDbSymbolTableRecord
100
AcDbLinetypeTableRecord
  2
DOT
 70
64
  3
. . . . . . . . . . . . . . . . . . . .
 72
65
 73
2
 40
0.2
 49
0.1
 74
0
 49
-0.1
 74
0
  0
LTYPE
  5
1F9
100
AcDbSymbolTableRecord
100
AcDbLinetypeTableRecord
  2
DASHED
 70
64
  3
- - - - - - - - - - - - - - - - - - - -
 72
65
 73
2
 40
0.2
 49
0.1
 74
0
 49
-0.1
 74
0
  0
ENDTAB
  0
TABLE
  2
LAYER
  5
2
100
AcDbSymbolTable
 70
36
  0
LAYER
  5
10
100
AcDbSymbolTableRecord
100
AcDbLayerTableRecord
  2
0
 70
0
 62
7
  6
CONTINUOUS
370
-3
390
F
  0
LAYER
  5
1FA
100
AcDbSymbolTableRecord
100
AcDbLayerTableRecord
  2
DEFAULT_1
 70
0
 62
7
  6
CENTER
370
-3
390
F
  0
LAYER
  5
1FB
100
AcDbSymbolTableRecord
100
AcDbLayerTableRecord
  2
DEFAULT_2
 70
0
 62
8
  6
HIDDEN
370
-3
390
F
  0
LAYER
  5
1FC
100
AcDbSymbolTableRecord
100
AcDbLayerTableRecord
  2
DEFAULT_3
 70
0
 62
7
  6
PHANTOM
370
-3
390
F
  0
LAYER
  5
1FD
100
AcDbSymbolTableRecord
100
AcDbLayerTableRecord
  2
01___PRT_ALL_DTM_PLN
 70
0
 62
7
  6
CONTINUOUS
370
-3
390
F
  0
LAYER
  5
1FE
100
AcDbSymbolTableRecord
100
AcDbLayerTableRecord
  2
01___PRT_DEF_DTM_PLN
 70
0
 62
7
  6
CONTINUOUS
370
-3
390
F
  0
LAYER
  5
1FF
100
AcDbSymbolTableRecord
100
AcDbLayerTableRecord
  2
02___PRT_ALL_AXES
 70
0
 62
7
  6
CONTINUOUS
370
-3
390
F
  0
LAYER
  5
200
100
AcDbSymbolTableRecord
100
AcDbLayerTableRecord
  2
03___PRT_ALL_CURVES
 70
0
 62
7
  6
CONTINUOUS
370
-3
390
F
  0
LAYER
  5
201
100
AcDbSymbolTableRecord
100
AcDbLayerTableRecord
  2
04___PRT_ALL_DTM_PNT
 70
0
 62
7
  6
CONTINUOUS
370
-3
390
F
  0
LAYER
  5
202
100
AcDbSymbolTableRecord
100
AcDbLayerTableRecord
  2
05___PRT_ALL_DTM_CSYS
 70
0
 62
7
  6
CONTINUOUS
370
-3
390
F
  0
LAYER
  5
203
100
AcDbSymbolTableRecord
100
AcDbLayerTableRecord
  2
05___PRT_DEF_DTM_CSYS
 70
0
 62
7
  6
CONTINUOUS
370
-3
390
F
  0
LAYER
  5
204
100
AcDbSymbolTableRecord
100
AcDbLayerTableRecord
  2
06___PRT_ALL_SURFS
 70
0
 62
7
  6
CONTINUOUS
370
-3
390
F
  0
LAYER
  5
205
100
AcDbSymbolTableRecord
100
AcDbLayerTableRecord
  2
BALLOONS
 70
0
 62
7
  6
CONTINUOUS
370
-3
390
F
  0
LAYER
  5
206
100
AcDbSymbolTableRecord
100
AcDbLayerTableRecord
  2
COSMETIC
 70
0
 62
7
  6
CONTINUOUS
370
-3
390
F
  0
LAYER
  5
207
100
AcDbSymbolTableRecord
100
AcDbLayerTableRecord
  2
DATUMS
 70
0
 62
7
  6
CONTINUOUS
370
-3
390
F
  0
LAYER
  5
208
100
AcDbSymbolTableRecord
100
AcDbLayerTableRecord
  2
DATUM_PLANES
 70
0
 62
7
  6
CONTINUOUS
370
-3
390
F
  0
ENDTAB
  0
TABLE
  2
STYLE
  5
3
100
AcDbSymbolTable
 70
1
  0
STYLE
  5
11
100
AcDbSymbolTableRecord
100
AcDbTextStyleTableRecord
  2
STANDARD
 70
0
 40
0.0
 41
1.0
 50
0.0
 71
0
 42
0.2
  3
VERAMONO.ttf
  4

  0
STYLE
  5
209
100
AcDbSymbolTableRecord
100
AcDbTextStyleTableRecord
  2
TEXTSTYLE_1
 70
0
 40
0.0
 41
0.8
 50
0.0
 71
0
 42
0.2
  3
gdt
  4

  0
STYLE
  5
20A
100
AcDbSymbolTableRecord
100
AcDbTextStyleTableRecord
  2
TEXTSTYLE_2
 70
0
 40
0.0
 41
1.0
 50
0.0
 71
0
 42
0.2
  3
VeraMono.ttf
  4

  0
STYLE
  5
20B
100
AcDbSymbolTableRecord
100
AcDbTextStyleTableRecord
  2
TEXTSTYLE_3
 70
0
 40
0.0
 41
1.0
 50
0.0
 71
0
 42
0.2
  3
VeraMono.ttf
  4

  0
STYLE
  5
20C
100
AcDbSymbolTableRecord
100
AcDbTextStyleTableRecord
  2
TEXTSTYLE_4
 70
0
 40
0.0
 41
1.0
 50
0.0
 71
0
 42
0.2
  3
VeraMono.ttf
  4

  0
STYLE
  5
20D
100
AcDbSymbolTableRecord
100
AcDbTextStyleTableRecord
  2
TEXTSTYLE_5
 70
0
 40
0.0
 41
1.0
 50
0.0
 71
0
 42
0.2
  3
VeraMono.ttf
  4

  0
STYLE
  5
20E
100
AcDbSymbolTableRecord
100
AcDbTextStyleTableRecord
  2
TEXTSTYLE_6
 70
0
 40
0.0
 41
0.81
 50
0.0
 71
0
 42
0.2
  3
gdt
  4

  0
STYLE
  5
20F
100
AcDbSymbolTableRecord
100
AcDbTextStyleTableRecord
  2
TEXTSTYLE_7
 70
0
 40
0.0
 41
1.0
 50
0.0
 71
0
 42
0.2
  3
VeraMono.ttf
  4

  0
STYLE
  5
210
100
AcDbSymbolTableRecord
100
AcDbTextStyleTableRecord
  2
TEXTSTYLE_8
 70
0
 40
0.0
 41
1.0
 50
0.0
 71
0
 42
0.2
  3
VERAMONO.ttf
  4

  0
STYLE
  5
211
100
AcDbSymbolTableRecord
100
AcDbTextStyleTableRecord
  2
TEXTSTYLE_9
 70
0
 40
0.0
 41
1.0
 50
0.0
 71
0
 42
0.2
  3
VERAMONO.ttf
  4

  0
ENDTAB
  0
TABLE
  2
VIEW
  5
6
100
AcDbSymbolTable
 70
0
  0
ENDTAB
  0
TABLE
  2
UCS
  5
7
100
AcDbSymbolTable
 70
0
  0
ENDTAB
  0
TABLE
  2
APPID
  5
9
100
AcDbSymbolTable
 70
1
  0
APPID
  5
212
100
AcDbSymbolTableRecord
100
AcDbRegAppTableRecord
  2
ACAD
 70
0
  0
ENDTAB
  0
TABLE
  2
BLOCK_RECORD
  5
1
100
AcDbSymbolTable
 70
0
  0
BLOCK_RECORD
  5
213
100
AcDbSymbolTableRecord
100
AcDbBlockTableRecord
  2
*Model_Space
  0
BLOCK_RECORD
  5
214
100
AcDbSymbolTableRecord
100
AcDbBlockTableRecord
  2
*Paper_Space
  0
BLOCK_RECORD
  5
215
100
AcDbSymbolTableRecord
100
AcDbBlockTableRecord
  2
_FILLED
  0
BLOCK_RECORD
  5
216
100
AcDbSymbolTableRecord
100
AcDbBlockTableRecord
  2
BOM BALLOON 4_BL6
  0
BLOCK_RECORD
  5
217
100
AcDbSymbolTableRecord
100
AcDbBlockTableRecord
  2
BOM BALLOON 3_BL5
  0
BLOCK_RECORD
  5
218
100
AcDbSymbolTableRecord
100
AcDbBlockTableRecord
  2
BOM BALLOON 2_BL4
  0
BLOCK_RECORD
  5
219
100
AcDbSymbolTableRecord
100
AcDbBlockTableRecord
  2
BOM BALLOON 6_BL3
  0
BLOCK_RECORD
  5
21A
100
AcDbSymbolTableRecord
100
AcDbBlockTableRecord
  2
BOM BALLOON 5_BL2
  0
BLOCK_RECORD
  5
21B
100
AcDbSymbolTableRecord
100
AcDbBlockTableRecord
  2
BOM BALLOON 1_BL1
  0
BLOCK_RECORD
  5
21C
100
AcDbSymbolTableRecord
100
AcDbBlockTableRecord
  2
BOM BALLOON 0_BL0
  0
BLOCK_RECORD
  5
21D
100
AcDbSymbolTableRecord
100
AcDbBlockTableRecord
  2
*T1
  0
BLOCK_RECORD
  5
21E
100
AcDbSymbolTableRecord
100
AcDbBlockTableRecord
  2
*T2
  0
BLOCK_RECORD
  5
21F
100
AcDbSymbolTableRecord
100
AcDbBlockTableRecord
  2
*T3
  0
BLOCK_RECORD
  5
220
100
AcDbSymbolTableRecord
100
AcDbBlockTableRecord
  2
*T4
  0
BLOCK_RECORD
  5
221
100
AcDbSymbolTableRecord
100
AcDbBlockTableRecord
  2
*T5
  0
ENDTAB
  0
TABLE
  2
DIMSTYLE
  5
A
100
AcDbSymbolTable
 70
1
100
AcDbDimStyleTable
 71
0
  0
DIMSTYLE
105
222
100
AcDbSymbolTableRecord
100
AcDbDimStyleTableRecord
  2
STANDARD
 70
0
  3

  4

 40
1.0
 41
0.1875
 42
0.0625
 43
0.38
 44
0.18
 45
0.0
 46
0.0
 47
0.001
 48
0.001
140
0.15625
141
0.09
142
0.0
143
25.4
144
1.0
145
0.0
146
1.0
147
0.09
 71
0.0
 72
0.0
 73
1
 74
1
 75
0
 76
0
 77
0
 78
4
170
0
171
2
172
0
173
0
174
0
175
0
176
0
177
0
178
0
270
2
271
3
272
3
273
2
274
2
275
0
280
0
281
0
282
0
283
1
284
4
285
0
286
0
287
3
288
0
340
11
341
215
342
215
343
215
344
215
  0
ENDTAB
  0
ENDSEC
  0
SECTION
  2
BLOCKS
  0
BLOCK
  5
20
100
AcDbEntity
  8
0
100
AcDbBlockBegin
  2
*Model_Space
 70
0
 10
0.0
 20
0.0
 30
0.0
  3
*Model_Space
  1

  0
ENDBLK
  5
21
100
AcDbEntity
  8
0
100
AcDbBlockEnd
  0
BLOCK
  5
1C
100
AcDbEntity
  8
0
100
AcDbBlockBegin
  2
*Paper_Space
 70
0
 10
0.0
 20
0.0
 30
0.0
  3
*Paper_Space
  1

  0
ENDBLK
  5
1D
100
AcDbEntity
  8
0
100
AcDbBlockEnd
  0
BLOCK
  5
223
100
AcDbEntity
  8
BALLOONS
100
AcDbBlockBegin
 62
2
  6
CONTINUOUS
  2
BOM BALLOON 4_BL6
 70
64
 10
9.7205004153
 20
4.4735402824
  3
BOM BALLOON 4_BL6
  1

  0
CIRCLE
  5
224
100
AcDbEntity
  8
BALLOONS
100
AcDbCircle
 62
2
  6
CONTINUOUS
 10
9.7205004153
 20
4.4735402824
 40
0.2734375
  0
LINE
  5
225
100
AcDbEntity
  8
BALLOONS
100
AcDbLine
 62
2
  6
CONTINUOUS
 10
9.4470629153
 20
4.4735402824
 11
9.9939379153
 21
4.4735402824
  0
MTEXT
  5
226
100
AcDbEntity
  8
BALLOONS
100
AcDbMText
 62
2
  6
CONTINUOUS
  7
TEXTSTYLE_9
 71
1
 72
1
 10
9.6511461449
 20
4.6717010897
 30
0.0
 11
1.0
 21
0.0
 31
0.0
 44
0.9
  1
4
 40
0.15625
 41
0.1293498168
  0
MTEXT
  5
227
100
AcDbEntity
  8
BALLOONS
100
AcDbMText
 62
2
  6
CONTINUOUS
  7
TEXTSTYLE_9
 71
1
 72
1
 10
9.6556220563
 20
4.4434296053
 30
0.0
 11
1.0
 21
0.0
 31
0.0
 44
0.9
  1
4
 40
0.15625
 41
0.1293498168
  0
ENDBLK
  5
228
100
AcDbEntity
  8
0
  6
BYBLOCK
 62
0
100
AcDbBlockEnd
  0
BLOCK
  5
229
100
AcDbEntity
  8
BALLOONS
100
AcDbBlockBegin
 62
2
  6
CONTINUOUS
  2
BOM BALLOON 3_BL5
 70
64
 10
10.2673754153
 20
4.4735402824
  3
BOM BALLOON 3_BL5
  1

  0
CIRCLE
  5
22A
100
AcDbEntity
  8
BALLOONS
100
AcDbCircle
 62
2
  6
CONTINUOUS
 10
10.2673754153
 20
4.4735402824
 40
0.2734375
  0
LINE
  5
22B
100
AcDbEntity
  8
BALLOONS
100
AcDbLine
 62
2
  6
CONTINUOUS
 10
9.9939379153
 20
4.4735402824
 11
10.5408129153
 21
4.4735402824
  0
MTEXT
  5
22C
100
AcDbEntity
  8
BALLOONS
100
AcDbMText
 62
2
  6
CONTINUOUS
  7
TEXTSTYLE_9
 71
1
 72
1
 10
10.1980211449
 20
4.6717010897
 30
0.0
 11
1.0
 21
0.0
 31
0.0
 44
0.9
  1
7
 40
0.15625
 41
0.1293498168
  0
MTEXT
  5
22D
100
AcDbEntity
  8
BALLOONS
100
AcDbMText
 62
2
  6
CONTINUOUS
  7
TEXTSTYLE_9
 71
1
 72
1
 10
10.2024970563
 20
4.4434296053
 30
0.0
 11
1.0
 21
0.0
 31
0.0
 44
0.9
  1
4
 40
0.15625
 41
0.1293498168
  0
ENDBLK
  5
22E
100
AcDbEntity
  8
0
  6
BYBLOCK
 62
0
100
AcDbBlockEnd
  0
BLOCK
  5
22F
100
AcDbEntity
  8
BALLOONS
100
AcDbBlockBegin
 62
2
  6
CONTINUOUS
  2
BOM BALLOON 2_BL4
 70
64
 10
10.8142504153
 20
4.4735402824
  3
BOM BALLOON 2_BL4
  1

  0
CIRCLE
  5
230
100
AcDbEntity
  8
BALLOONS
100
AcDbCircle
 62
2
  6
CONTINUOUS
 10
10.8142504153
 20
4.4735402824
 40
0.2734375
  0
LINE
  5
231
100
AcDbEntity
  8
BALLOONS
100
AcDbLine
 62
2
  6
CONTINUOUS
 10
10.5408129153
 20
4.4735402824
 11
11.0876879153
 21
4.4735402824
  0
MTEXT
  5
232
100
AcDbEntity
  8
BALLOONS
100
AcDbMText
 62
2
  6
CONTINUOUS
  7
TEXTSTYLE_9
 71
1
 72
1
 10
10.7448961449
 20
4.6717010897
 30
0.0
 11
1.0
 21
0.0
 31
0.0
 44
0.9
  1
3
 40
0.15625
 41
0.1293498168
  0
MTEXT
  5
233
100
AcDbEntity
  8
BALLOONS
100
AcDbMText
 62
2
  6
CONTINUOUS
  7
TEXTSTYLE_9
 71
1
 72
1
 10
10.7493720563
 20
4.4434296053
 30
0.0
 11
1.0
 21
0.0
 31
0.0
 44
0.9
  1
8
 40
0.15625
 41
0.1293498168
  0
ENDBLK
  5
234
100
AcDbEntity
  8
0
  6
BYBLOCK
 62
0
100
AcDbBlockEnd
  0
BLOCK
  5
235
100
AcDbEntity
  8
BALLOONS
100
AcDbBlockBegin
 62
2
  6
CONTINUOUS
  2
BOM BALLOON 6_BL3
 70
64
 10
11.3611254153
 20
4.4735402824
  3
BOM BALLOON 6_BL3
  1

  0
CIRCLE
  5
236
100
AcDbEntity
  8
BALLOONS
100
AcDbCircle
 62
2
  6
CONTINUOUS
 10
11.3611254153
 20
4.4735402824
 40
0.2734375
  0
LINE
  5
237
100
AcDbEntity
  8
BALLOONS
100
AcDbLine
 62
2
  6
CONTINUOUS
 10
11.0876879153
 20
4.4735402824
 11
11.6345629153
 21
4.4735402824
  0
MTEXT
  5
238
100
AcDbEntity
  8
BALLOONS
100
AcDbMText
 62
2
  6
CONTINUOUS
  7
TEXTSTYLE_9
 71
1
 72
1
 10
11.2917711449
 20
4.6717010897
 30
0.0
 11
1.0
 21
0.0
 31
0.0
 44
0.9
  1
6
 40
0.15625
 41
0.1293498168
  0
MTEXT
  5
239
100
AcDbEntity
  8
BALLOONS
100
AcDbMText
 62
2
  6
CONTINUOUS
  7
TEXTSTYLE_9
 71
1
 72
1
 10
11.2962470563
 20
4.4434296053
 30
0.0
 11
1.0
 21
0.0
 31
0.0
 44
0.9
  1
4
 40
0.15625
 41
0.1293498168
  0
ENDBLK
  5
23A
100
AcDbEntity
  8
0
  6
BYBLOCK
 62
0
100
AcDbBlockEnd
  0
BLOCK
  5
23B
100
AcDbEntity
  8
BALLOONS
100
AcDbBlockBegin
 62
2
  6
CONTINUOUS
  2
BOM BALLOON 5_BL2
 70
64
 10
14.8989327243
 20
6.0518293189
  3
BOM BALLOON 5_BL2
  1

  0
CIRCLE
  5
23C
100
AcDbEntity
  8
BALLOONS
100
AcDbCircle
 62
2
  6
CONTINUOUS
 10
14.8989327243
 20
6.0518293189
 40
0.2734375
  0
LINE
  5
23D
100
AcDbEntity
  8
BALLOONS
100
AcDbLine
 62
2
  6
CONTINUOUS
 10
14.6254952243
 20
6.0518293189
 11
15.1723702243
 21
6.0518293189
  0
MTEXT
  5
23E
100
AcDbEntity
  8
BALLOONS
100
AcDbMText
 62
2
  6
CONTINUOUS
  7
TEXTSTYLE_9
 71
1
 72
1
 10
14.8295784538
 20
6.2499901262
 30
0.0
 11
1.0
 21
0.0
 31
0.0
 44
0.9
  1
5
 40
0.15625
 41
0.1293498168
  0
MTEXT
  5
23F
100
AcDbEntity
  8
BALLOONS
100
AcDbMText
 62
2
  6
CONTINUOUS
  7
TEXTSTYLE_9
 71
1
 72
1
 10
14.8340543653
 20
6.0217186419
 30
0.0
 11
1.0
 21
0.0
 31
0.0
 44
0.9
  1
1
 40
0.15625
 41
0.1293498168
  0
ENDBLK
  5
240
100
AcDbEntity
  8
0
  6
BYBLOCK
 62
0
100
AcDbBlockEnd
  0
BLOCK
  5
241
100
AcDbEntity
  8
BALLOONS
100
AcDbBlockBegin
 62
2
  6
CONTINUOUS
  2
BOM BALLOON 1_BL1
 70
64
 10
14.9724912131
 20
3.8437130409
  3
BOM BALLOON 1_BL1
  1

  0
CIRCLE
  5
242
100
AcDbEntity
  8
BALLOONS
100
AcDbCircle
 62
2
  6
CONTINUOUS
 10
14.9724912131
 20
3.8437130409
 40
0.2734375
  0
LINE
  5
243
100
AcDbEntity
  8
BALLOONS
100
AcDbLine
 62
2
  6
CONTINUOUS
 10
14.6990537131
 20
3.8437130409
 11
15.2459287131
 21
3.8437130409
  0
MTEXT
  5
244
100
AcDbEntity
  8
BALLOONS
100
AcDbMText
 62
2
  6
CONTINUOUS
  7
TEXTSTYLE_9
 71
1
 72
1
 10
14.9031369427
 20
4.0418738482
 30
0.0
 11
1.0
 21
0.0
 31
0.0
 44
0.9
  1
2
 40
0.15625
 41
0.1293498168
  0
MTEXT
  5
245
100
AcDbEntity
  8
BALLOONS
100
AcDbMText
 62
2
  6
CONTINUOUS
  7
TEXTSTYLE_9
 71
1
 72
1
 10
14.9076128541
 20
3.8136023639
 30
0.0
 11
1.0
 21
0.0
 31
0.0
 44
0.9
  1
1
 40
0.15625
 41
0.1293498168
  0
ENDBLK
  5
246
100
AcDbEntity
  8
0
  6
BYBLOCK
 62
0
100
AcDbBlockEnd
  0
BLOCK
  5
247
100
AcDbEntity
  8
BALLOONS
100
AcDbBlockBegin
 62
2
  6
CONTINUOUS
  2
BOM BALLOON 0_BL0
 70
64
 10
11.9989031732
 20
7.2015790602
  3
BOM BALLOON 0_BL0
  1

  0
CIRCLE
  5
248
100
AcDbEntity
  8
BALLOONS
100
AcDbCircle
 62
2
  6
CONTINUOUS
 10
11.9989031732
 20
7.2015790602
 40
0.2734375
  0
LINE
  5
249
100
AcDbEntity
  8
BALLOONS
100
AcDbLine
 62
2
  6
CONTINUOUS
 10
11.7254656732
 20
7.2015790602
 11
12.2723406732
 21
7.2015790602
  0
MTEXT
  5
24A
100
AcDbEntity
  8
BALLOONS
100
AcDbMText
 62
2
  6
CONTINUOUS
  7
TEXTSTYLE_9
 71
1
 72
1
 10
11.9295489028
 20
7.3997398675
 30
0.0
 11
1.0
 21
0.0
 31
0.0
 44
0.9
  1
1
 40
0.15625
 41
0.1293498168
  0
MTEXT
  5
24B
100
AcDbEntity
  8
BALLOONS
100
AcDbMText
 62
2
  6
CONTINUOUS
  7
TEXTSTYLE_9
 71
1
 72
1
 10
11.9340248143
 20
7.1714683831
 30
0.0
 11
1.0
 21
0.0
 31
0.0
 44
0.9
  1
1
 40
0.15625
 41
0.1293498168
  0
ENDBLK
  5
24C
100
AcDbEntity
  8
0
  6
BYBLOCK
 62
0
100
AcDbBlockEnd
  0
BLOCK
  5
24D
100
AcDbEntity
  8
0
100
AcDbBlockBegin
  2
_FILLED
 70
64
 10
0.0
 20
0.0
  3
_FILLED
  1

  0
SOLID
  5
24E
100
AcDbEntity
  8
0
  6
BYBLOCK
 62
0
100
AcDbTrace
 10
0.0
 20
0.0
 11
-1.0
 21
0.1666666667
 12
-1.0
 22
-0.1666666667
 13
-1.0
 23
-0.1666666667
  0
ENDBLK
  5
24F
100
AcDbEntity
  8
0
  6
BYBLOCK
 62
0
100
AcDbBlockEnd
  0
BLOCK
  5
250
100
AcDbEntity
  8
0
100
AcDbBlockBegin
  2
*T1
 70
1
 10
0.0
 20
0.0
  3
*T1
  1

  0
LINE
  5
251
100
AcDbEntity
  8
0
100
AcDbLine
 62
7
  6
CONTINUOUS
 10
5.75
 20
0.0
 11
0.0
 21
0.0
  0
LINE
  5
252
100
AcDbEntity
  8
0
100
AcDbLine
 62
7
  6
CONTINUOUS
 10
5.75
 20
0.0
 11
5.75
 21
2.0
  0
LINE
  5
253
100
AcDbEntity
  8
0
100
AcDbLine
 62
7
  6
CONTINUOUS
 10
5.75
 20
0.25
 11
0.0
 21
0.25
  0
LINE
  5
254
100
AcDbEntity
  8
0
100
AcDbLine
 62
7
  6
CONTINUOUS
 10
5.75
 20
0.75
 11
3.5
 21
0.75
  0
LINE
  5
255
100
AcDbEntity
  8
0
100
AcDbLine
 62
7
  6
CONTINUOUS
 10
5.75
 20
2.0
 11
0.0
 21
2.0
  0
LINE
  5
256
100
AcDbEntity
  8
0
100
AcDbLine
 62
7
  6
CONTINUOUS
 10
3.5
 20
0.0
 11
3.5
 21
2.0
  0
LINE
  5
257
100
AcDbEntity
  8
0
100
AcDbLine
 62
7
  6
CONTINUOUS
 10
1.5
 20
0.0
 11
1.5
 21
0.25
  0
LINE
  5
258
100
AcDbEntity
  8
0
100
AcDbLine
 62
7
  6
CONTINUOUS
 10
0.0
 20
0.0
 11
0.0
 21
2.0
  0
MTEXT
  5
259
100
AcDbEntity
  8
BALLOONS
100
AcDbMText
 62
2
  6
CONTINUOUS
  7
TEXTSTYLE_2
 71
1
 72
1
 10
3.5625
 20
0.171875
 30
0.0
 11
1.0
 21
0.0
 31
0.0
 44
0.9
  1
SHEET 1 OF 1
 40
0.125
 41
1.2417582418
  0
MTEXT
  5
25A
100
AcDbEntity
  8
BALLOONS
100
AcDbMText
 62
2
  6
CONTINUOUS
  7
TEXTSTYLE_2
 71
1
 72
1
 10
0.0625
 20
0.171875
 30
0.0
 11
1.0
 21
0.0
 31
0.0
 44
0.9
  1
SCALE
 40
0.125
 41
0.5173992674
  0
MTEXT
  5
25B
100
AcDbEntity
  8
BALLOONS
100
AcDbMText
 62
2
  6
CONTINUOUS
  7
STANDARD
 71
2
 72
1
 10
4.625
 20
0.56
 30
0.0
 11
1.0
 21
0.0
 31
0.0
 44
0.9
  1
BEARING_BRACKET_ASSY
 40
0.12
 41
1.9868131868
  0
MTEXT
  5
25C
100
AcDbEntity
  8
BALLOONS
100
AcDbMText
 62
2
  6
CONTINUOUS
  7
TEXTSTYLE_3
 71
2
 72
1
 10
1.75
 20
1.225
 30
0.0
 11
1.0
 21
0.0
 31
0.0
 44
0.9
  1
BEARING BRACKET ASSY
 40
0.16
 41
2.6490842491
  0
ENDBLK
  5
25D
100
AcDbEntity
  8
0
100
AcDbBlockEnd
  0
BLOCK
  5
25E
100
AcDbEntity
  8
0
100
AcDbBlockBegin
  2
*T2
 70
1
 10
0.0
 20
0.0
  3
*T2
  1

  0
LINE
  5
25F
100
AcDbEntity
  8
0
100
AcDbLine
 62
7
  6
CONTINUOUS
 10
1.75
 20
0.0
 11
0.0
 21
0.0
  0
LINE
  5
260
100
AcDbEntity
  8
0
100
AcDbLine
 62
7
  6
CONTINUOUS
 10
1.75
 20
0.0
 11
1.75
 21
1.998
  0
LINE
  5
261
100
AcDbEntity
  8
0
100
AcDbLine
 62
7
  6
CONTINUOUS
 10
1.75
 20
0.333
 11
0.0
 21
0.333
  0
LINE
  5
262
100
AcDbEntity
  8
0
100
AcDbLine
 62
7
  6
CONTINUOUS
 10
1.75
 20
0.666
 11
0.0
 21
0.666
  0
LINE
  5
263
100
AcDbEntity
  8
0
100
AcDbLine
 62
7
  6
CONTINUOUS
 10
1.75
 20
0.999
 11
0.0
 21
0.999
  0
LINE
  5
264
100
AcDbEntity
  8
0
100
AcDbLine
 62
7
  6
CONTINUOUS
 10
1.75
 20
1.332
 11
0.0
 21
1.332
  0
LINE
  5
265
100
AcDbEntity
  8
0
100
AcDbLine
 62
7
  6
CONTINUOUS
 10
1.75
 20
1.665
 11
0.0
 21
1.665
  0
LINE
  5
266
100
AcDbEntity
  8
0
100
AcDbLine
 62
7
  6
CONTINUOUS
 10
1.75
 20
1.998
 11
0.0
 21
1.998
  0
LINE
  5
267
100
AcDbEntity
  8
0
100
AcDbLine
 62
7
  6
CONTINUOUS
 10
1.0
 20
1.665
 11
1.0
 21
1.998
  0
LINE
  5
268
100
AcDbEntity
  8
0
100
AcDbLine
 62
7
  6
CONTINUOUS
 10
0.625
 20
0.0
 11
0.625
 21
1.998
  0
LINE
  5
269
100
AcDbEntity
  8
0
100
AcDbLine
 62
7
  6
CONTINUOUS
 10
0.0
 20
0.0
 11
0.0
 21
1.998
  0
MTEXT
  5
26A
100
AcDbEntity
  8
BALLOONS
100
AcDbMText
 62
2
  6
CONTINUOUS
  7
TEXTSTYLE_4
 71
1
 72
1
 10
0.0625
 20
0.2665
 30
0.0
 11
1.0
 21
0.0
 31
0.0
 44
0.9
  1
CHIEF\PENGR.
 40
0.08
 41
0.3311355311
  0
MTEXT
  5
26B
100
AcDbEntity
  8
BALLOONS
100
AcDbMText
 62
2
  6
CONTINUOUS
  7
TEXTSTYLE_4
 71
1
 72
1
 10
0.0625
 20
0.5995
 30
0.0
 11
1.0
 21
0.0
 31
0.0
 44
0.9
  1
PROJ.\PENGR.
 40
0.08
 41
0.3311355311
  0
MTEXT
  5
26C
100
AcDbEntity
  8
BALLOONS
100
AcDbMText
 62
2
  6
CONTINUOUS
  7
TEXTSTYLE_4
 71
1
 72
1
 10
0.0625
 20
0.9325
 30
0.0
 11
1.0
 21
0.0
 31
0.0
 44
0.9
  1
ELEC.\PENGR.
 40
0.08
 41
0.3311355311
  0
MTEXT
  5
26D
100
AcDbEntity
  8
BALLOONS
100
AcDbMText
 62
2
  6
CONTINUOUS
  7
TEXTSTYLE_4
 71
1
 72
1
 10
0.0625
 20
1.2655
 30
0.0
 11
1.0
 21
0.0
 31
0.0
 44
0.9
  1
MECH.\PENGR.
 40
0.08
 41
0.3311355311
  0
MTEXT
  5
26E
100
AcDbEntity
  8
BALLOONS
100
AcDbMText
 62
2
  6
CONTINUOUS
  7
TEXTSTYLE_4
 71
1
 72
1
 10
0.0625
 20
1.5385
 30
0.0
 11
1.0
 21
0.0
 31
0.0
 44
0.9
  1
CHECKER
 40
0.08
 41
0.4635897436
  0
MTEXT
  5
26F
100
AcDbEntity
  8
BALLOONS
100
AcDbMText
 62
2
  6
CONTINUOUS
  7
STANDARD
 71
2
 72
1
 10
1.375
 20
1.8815
 30
0.0
 11
1.0
 21
0.0
 31
0.0
 44
0.9
  1
2/20/10
 40
0.1
 41
0.5794871795
  0
MTEXT
  5
270
100
AcDbEntity
  8
BALLOONS
100
AcDbMText
 62
2
  6
CONTINUOUS
  7
STANDARD
 71
2
 72
1
 10
0.8125
 20
1.8815
 30
0.0
 11
1.0
 21
0.0
 31
0.0
 44
0.9
  1
BJD
 40
0.1
 41
0.2483516484
  0
MTEXT
  5
271
100
AcDbEntity
  8
BALLOONS
100
AcDbMText
 62
2
  6
CONTINUOUS
  7
TEXTSTYLE_4
 71
1
 72
1
 10
0.0625
 20
1.8715
 30
0.0
 11
1.0
 21
0.0
 31
0.0
 44
0.9
  1
DRAWN
 40
0.08
 41
0.3311355311
  0
ENDBLK
  5
272
100
AcDbEntity
  8
0
100
AcDbBlockEnd
  0
BLOCK
  5
273
100
AcDbEntity
  8
0
100
AcDbBlockBegin
  2
*T3
 70
1
 10
0.0
 20
0.0
  3
*T3
  1

  0
LINE
  5
274
100
AcDbEntity
  8
0
100
AcDbLine
 62
7
  6
CONTINUOUS
 10
2.375
 20
0.0
 11
-0.0
 21
0.0
  0
LINE
  5
275
100
AcDbEntity
  8
0
100
AcDbLine
 62
7
  6
CONTINUOUS
 10
2.375
 20
0.0
 11
2.375
 21
2.0
  0
LINE
  5
276
100
AcDbEntity
  8
0
100
AcDbLine
 62
7
  6
CONTINUOUS
 10
2.375
 20
0.5625
 11
-0.0
 21
0.5625
  0
LINE
  5
277
100
AcDbEntity
  8
0
100
AcDbLine
 62
7
  6
CONTINUOUS
 10
2.375
 20
1.125
 11
-0.0
 21
1.125
  0
LINE
  5
278
100
AcDbEntity
  8
0
100
AcDbLine
 62
7
  6
CONTINUOUS
 10
2.375
 20
1.75
 11
-0.0
 21
1.75
  0
LINE
  5
279
100
AcDbEntity
  8
0
100
AcDbLine
 62
7
  6
CONTINUOUS
 10
2.375
 20
2.0
 11
-0.0
 21
2.0
  0
LINE
  5
27A
100
AcDbEntity
  8
0
100
AcDbLine
 62
7
  6
CONTINUOUS
 10
1.5625
 20
1.125
 11
1.5625
 21
1.75
  0
LINE
  5
27B
100
AcDbEntity
  8
0
100
AcDbLine
 62
7
  6
CONTINUOUS
 10
-0.0
 20
0.0
 11
-0.0
 21
2.0
  0
MTEXT
  5
27C
100
AcDbEntity
  8
BALLOONS
100
AcDbMText
 62
2
  6
CONTINUOUS
  7
TEXTSTYLE_2
 71
1
 72
1
 10
0.0625
 20
0.40625
 30
0.0
 11
1.0
 21
0.0
 31
0.0
 44
0.9
  1
FINISH:\PSPEC:
 40
0.1
 41
0.5794871795
  0
MTEXT
  5
27D
100
AcDbEntity
  8
BALLOONS
100
AcDbMText
 62
2
  6
CONTINUOUS
  7
TEXTSTYLE_2
 71
1
 72
1
 10
0.0625
 20
0.96875
 30
0.0
 11
1.0
 21
0.0
 31
0.0
 44
0.9
  1
MATERIAL:\PSPEC:
 40
0.1
 41
0.7450549451
  0
MTEXT
  5
27E
100
AcDbEntity
  8
BALLOONS
100
AcDbMText
 62
2
  6
CONTINUOUS
  7
TEXTSTYLE_3
 71
2
 72
1
 10
1.96875
 20
1.59375
 30
0.0
 11
1.0
 21
0.0
 31
0.0
 44
0.9
  1
DO NOT\PSCALE
 40
0.125
 41
0.6208791209
  0
MTEXT
  5
27F
100
AcDbEntity
  8
BALLOONS
100
AcDbMText
 62
2
  6
CONTINUOUS
  7
TEXTSTYLE_5
 71
3
 72
1
 10
1.5
 20
1.685
 30
0.0
 11
1.0
 21
0.0
 31
0.0
 44
0.9
  1
FRACTIONAL   \Fgdt;{\Fgdt;`} 1/32\PDECIMAL .XXX \Fgdt;{\Fgdt;`} .010\P.XX \Fgdt;{\Fgdt;`} .020\PANGULAR      \Fgdt;{\Fgdt;`} 1/2\Fgdt;{\Fgdt;~}
 40
0.09
 41
1.4460989011
  0
MTEXT
  5
280
100
AcDbEntity
  8
BALLOONS
100
AcDbMText
 62
2
  6
CONTINUOUS
  7
TEXTSTYLE_7
 71
1
 72
1
 10
0.0625
 20
1.921875
 30
0.0
 11
1.0
 21
0.0
 31
0.0
 44
0.9
  1
UNLESS OTHERWISE SPECIFIED:
 40
0.1
 41
2.2351648352
  0
ENDBLK
  5
281
100
AcDbEntity
  8
0
100
AcDbBlockEnd
  0
BLOCK
  5
282
100
AcDbEntity
  8
0
100
AcDbBlockBegin
  2
*T4
 70
1
 10
0.0
 20
0.0
  3
*T4
  1

  0
LINE
  5
283
100
AcDbEntity
  8
0
100
AcDbLine
 62
2
  6
CONTINUOUS
 10
0.0
 20
0.0
 11
6.375
 21
0.0
  0
LINE
  5
284
100
AcDbEntity
  8
0
100
AcDbLine
 62
2
  6
CONTINUOUS
 10
0.0
 20
0.0
 11
0.0
 21
-0.828125
  0
LINE
  5
285
100
AcDbEntity
  8
0
100
AcDbLine
 62
2
  6
CONTINUOUS
 10
0.0
 20
-0.2421875
 11
6.375
 21
-0.2421875
  0
LINE
  5
286
100
AcDbEntity
  8
0
100
AcDbLine
 62
2
  6
CONTINUOUS
 10
0.0
 20
-0.4375
 11
6.375
 21
-0.4375
  0
LINE
  5
287
100
AcDbEntity
  8
0
100
AcDbLine
 62
2
  6
CONTINUOUS
 10
0.0
 20
-0.6328125
 11
6.375
 21
-0.6328125
  0
LINE
  5
288
100
AcDbEntity
  8
0
100
AcDbLine
 62
2
  6
CONTINUOUS
 10
0.0
 20
-0.828125
 11
6.375
 21
-0.828125
  0
LINE
  5
289
100
AcDbEntity
  8
0
100
AcDbLine
 62
2
  6
CONTINUOUS
 10
0.5
 20
-0.2421875
 11
0.5
 21
-0.828125
  0
LINE
  5
28A
100
AcDbEntity
  8
0
100
AcDbLine
 62
2
  6
CONTINUOUS
 10
3.375
 20
-0.2421875
 11
3.375
 21
-0.828125
  0
LINE
  5
28B
100
AcDbEntity
  8
0
100
AcDbLine
 62
2
  6
CONTINUOUS
 10
3.75
 20
-0.2421875
 11
3.75
 21
-0.828125
  0
LINE
  5
28C
100
AcDbEntity
  8
0
100
AcDbLine
 62
2
  6
CONTINUOUS
 10
4.5
 20
0.0
 11
4.5
 21
-0.828125
  0
LINE
  5
28D
100
AcDbEntity
  8
0
100
AcDbLine
 62
2
  6
CONTINUOUS
 10
5.125
 20
-0.2421875
 11
5.125
 21
-0.828125
  0
LINE
  5
28E
100
AcDbEntity
  8
0
100
AcDbLine
 62
2
  6
CONTINUOUS
 10
5.75
 20
-0.2421875
 11
5.75
 21
-0.828125
  0
LINE
  5
28F
100
AcDbEntity
  8
0
100
AcDbLine
 62
2
  6
CONTINUOUS
 10
6.375
 20
0.0
 11
6.375
 21
-0.828125
  0
MTEXT
  5
290
100
AcDbEntity
  8
BALLOONS
100
AcDbMText
 62
2
  6
CONTINUOUS
  7
TEXTSTYLE_3
 71
2
 72
1
 10
2.25
 20
-0.05859375
 30
0.0
 11
1.0
 21
0.0
 31
0.0
 44
0.9
  1
REVISIONS
 40
0.125
 41
0.9313186813
  0
MTEXT
  5
291
100
AcDbEntity
  8
BALLOONS
100
AcDbMText
 62
2
  6
CONTINUOUS
  7
TEXTSTYLE_3
 71
2
 72
1
 10
5.4375
 20
-0.05859375
 30
0.0
 11
1.0
 21
0.0
 31
0.0
 44
0.9
  1
APPROVALS
 40
0.125
 41
0.9313186813
  0
MTEXT
  5
292
100
AcDbEntity
  8
BALLOONS
100
AcDbMText
 62
2
  6
CONTINUOUS
  7
TEXTSTYLE_3
 71
2
 72
1
 10
0.25
 20
-0.28984375
 30
0.0
 11
1.0
 21
0.0
 31
0.0
 44
0.9
  1
SYM
 40
0.1
 41
0.2483516484
  0
MTEXT
  5
293
100
AcDbEntity
  8
BALLOONS
100
AcDbMText
 62
2
  6
CONTINUOUS
  7
TEXTSTYLE_3
 71
2
 72
1
 10
1.9375
 20
-0.28984375
 30
0.0
 11
1.0
 21
0.0
 31
0.0
 44
0.9
  1
DESCRIPTION
 40
0.1
 41
0.9106227106
  0
MTEXT
  5
294
100
AcDbEntity
  8
BALLOONS
100
AcDbMText
 62
2
  6
CONTINUOUS
  7
TEXTSTYLE_3
 71
2
 72
1
 10
3.5625
 20
-0.28984375
 30
0.0
 11
1.0
 21
0.0
 31
0.0
 44
0.9
  1
BY
 40
0.1
 41
0.1655677656
  0
MTEXT
  5
295
100
AcDbEntity
  8
BALLOONS
100
AcDbMText
 62
2
  6
CONTINUOUS
  7
TEXTSTYLE_3
 71
2
 72
1
 10
4.125
 20
-0.28984375
 30
0.0
 11
1.0
 21
0.0
 31
0.0
 44
0.9
  1
DATE
 40
0.1
 41
0.3311355311
  0
MTEXT
  5
296
100
AcDbEntity
  8
BALLOONS
100
AcDbMText
 62
2
  6
CONTINUOUS
  7
TEXTSTYLE_3
 71
2
 72
1
 10
4.8125
 20
-0.28984375
 30
0.0
 11
1.0
 21
0.0
 31
0.0
 44
0.9
  1
ENGRG
 40
0.1
 41
0.4139194139
  0
MTEXT
  5
297
100
AcDbEntity
  8
BALLOONS
100
AcDbMText
 62
2
  6
CONTINUOUS
  7
TEXTSTYLE_3
 71
2
 72
1
 10
5.4375
 20
-0.28984375
 30
0.0
 11
1.0
 21
0.0
 31
0.0
 44
0.9
  1
PROD
 40
0.1
 41
0.3311355311
  0
MTEXT
  5
298
100
AcDbEntity
  8
BALLOONS
100
AcDbMText
 62
2
  6
CONTINUOUS
  7
TEXTSTYLE_3
 71
2
 72
1
 10
6.0625
 20
-0.28984375
 30
0.0
 11
1.0
 21
0.0
 31
0.0
 44
0.9
  1
Q.A.
 40
0.1
 41
0.3311355311
  0
MTEXT
  5
299
100
AcDbEntity
  8
BALLOONS
100
AcDbMText
 62
2
  6
CONTINUOUS
  7
TEXTSTYLE_3
 71
2
 72
1
 10
0.25
 20
-0.48515625
 30
0.0
 11
1.0
 21
0.0
 31
0.0
 44
0.9
  1
1
 40
0.1
 41
0.0827838828
  0
MTEXT
  5
29A
100
AcDbEntity
  8
BALLOONS
100
AcDbMText
 62
2
  6
CONTINUOUS
  7
TEXTSTYLE_3
 71
1
 72
1
 10
0.5625
 20
-0.48515625
 30
0.0
 11
1.0
 21
0.0
 31
0.0
 44
0.9
  1
ORIGINAL        
 40
0.1
 41
1.3245421245
  0
MTEXT
  5
29B
100
AcDbEntity
  8
BALLOONS
100
AcDbMText
 62
2
  6
CONTINUOUS
  7
STANDARD
 71
2
 72
1
 10
3.5625
 20
-0.48515625
 30
0.0
 11
1.0
 21
0.0
 31
0.0
 44
0.9
  1
BJD
 40
0.1
 41
0.2483516484
  0
MTEXT
  5
29C
100
AcDbEntity
  8
BALLOONS
100
AcDbMText
 62
2
  6
CONTINUOUS
  7
TEXTSTYLE_8
 71
2
 72
1
 10
4.125
 20
-0.48515625
 30
0.0
 11
1.0
 21
0.0
 31
0.0
 44
0.9
  1
2/20/10
 40
0.1
 41
0.5794871795
  0
ENDBLK
  5
29D
100
AcDbEntity
  8
0
100
AcDbBlockEnd
  0
BLOCK
  5
29E
100
AcDbEntity
  8
0
100
AcDbBlockBegin
  2
*T5
 70
1
 10
0.0
 20
0.0
  3
*T5
  1

  0
LINE
  5
29F
100
AcDbEntity
  8
0
100
AcDbLine
 62
2
  6
CONTINUOUS
 10
0.0
 20
0.0
 11
7.375
 21
0.0
  0
LINE
  5
2A0
100
AcDbEntity
  8
0
100
AcDbLine
 62
2
  6
CONTINUOUS
 10
0.0
 20
0.0
 11
0.0
 21
-2.34
  0
LINE
  5
2A1
100
AcDbEntity
  8
0
100
AcDbLine
 62
2
  6
CONTINUOUS
 10
0.0
 20
-0.38
 11
7.375
 21
-0.38
  0
LINE
  5
2A2
100
AcDbEntity
  8
0
100
AcDbLine
 62
2
  6
CONTINUOUS
 10
0.0
 20
-0.66
 11
7.375
 21
-0.66
  0
LINE
  5
2A3
100
AcDbEntity
  8
0
100
AcDbLine
 62
2
  6
CONTINUOUS
 10
0.0
 20
-0.94
 11
7.375
 21
-0.94
  0
LINE
  5
2A4
100
AcDbEntity
  8
0
100
AcDbLine
 62
2
  6
CONTINUOUS
 10
0.0
 20
-1.22
 11
7.375
 21
-1.22
  0
LINE
  5
2A5
100
AcDbEntity
  8
0
100
AcDbLine
 62
2
  6
CONTINUOUS
 10
0.0
 20
-1.5
 11
7.375
 21
-1.5
  0
LINE
  5
2A6
100
AcDbEntity
  8
0
100
AcDbLine
 62
2
  6
CONTINUOUS
 10
0.0
 20
-1.78
 11
7.375
 21
-1.78
  0
LINE
  5
2A7
100
AcDbEntity
  8
0
100
AcDbLine
 62
2
  6
CONTINUOUS
 10
0.0
 20
-2.06
 11
7.375
 21
-2.06
  0
LINE
  5
2A8
100
AcDbEntity
  8
0
100
AcDbLine
 62
2
  6
CONTINUOUS
 10
0.0
 20
-2.34
 11
7.375
 21
-2.34
  0
LINE
  5
2A9
100
AcDbEntity
  8
0
100
AcDbLine
 62
2
  6
CONTINUOUS
 10
0.625
 20
0.0
 11
0.625
 21
-2.34
  0
LINE
  5
2AA
100
AcDbEntity
  8
0
100
AcDbLine
 62
2
  6
CONTINUOUS
 10
1.25
 20
0.0
 11
1.25
 21
-2.34
  0
LINE
  5
2AB
100
AcDbEntity
  8
0
100
AcDbLine
 62
2
  6
CONTINUOUS
 10
3.375
 20
0.0
 11
3.375
 21
-2.34
  0
LINE
  5
2AC
100
AcDbEntity
  8
0
100
AcDbLine
 62
2
  6
CONTINUOUS
 10
4.0
 20
0.0
 11
4.0
 21
-2.34
  0
LINE
  5
2AD
100
AcDbEntity
  8
0
100
AcDbLine
 62
2
  6
CONTINUOUS
 10
7.375
 20
0.0
 11
7.375
 21
-2.34
  0
MTEXT
  5
2AE
100
AcDbEntity
  8
BALLOONS
100
AcDbMText
 62
2
  6
CONTINUOUS
  7
STANDARD
 71
2
 72
1
 10
0.3125
 20
-0.111875
 30
0.0
 11
1.0
 21
0.0
 31
0.0
 44
0.9
  1
ITEM
 40
0.15625
 41
0.5173992674
  0
MTEXT
  5
2AF
100
AcDbEntity
  8
BALLOONS
100
AcDbMText
 62
2
  6
CONTINUOUS
  7
STANDARD
 71
2
 72
1
 10
0.9375
 20
-0.111875
 30
0.0
 11
1.0
 21
0.0
 31
0.0
 44
0.9
  1
SYM
 40
0.15625
 41
0.3880494505
  0
MTEXT
  5
2B0
100
AcDbEntity
  8
BALLOONS
100
AcDbMText
 62
2
  6
CONTINUOUS
  7
STANDARD
 71
2
 72
1
 10
2.3125
 20
-0.111875
 30
0.0
 11
1.0
 21
0.0
 31
0.0
 44
0.9
  1
PART NUMBER
 40
0.15625
 41
1.4228479853
  0
MTEXT
  5
2B1
100
AcDbEntity
  8
BALLOONS
100
AcDbMText
 62
2
  6
CONTINUOUS
  7
STANDARD
 71
2
 72
1
 10
3.6875
 20
-0.111875
 30
0.0
 11
1.0
 21
0.0
 31
0.0
 44
0.9
  1
QTY
 40
0.15625
 41
0.3880494505
  0
MTEXT
  5
2B2
100
AcDbEntity
  8
BALLOONS
100
AcDbMText
 62
2
  6
CONTINUOUS
  7
STANDARD
 71
2
 72
1
 10
5.6875
 20
-0.111875
 30
0.0
 11
1.0
 21
0.0
 31
0.0
 44
0.9
  1
DESCRIPTION
 40
0.15625
 41
1.4228479853
  0
MTEXT
  5
2B3
100
AcDbEntity
  8
BALLOONS
100
AcDbMText
 62
2
  6
CONTINUOUS
  7
STANDARD
 71
2
 72
1
 10
0.3125
 20
-0.4575
 30
0.0
 11
1.0
 21
0.0
 31
0.0
 44
0.9
  1
1
 40
0.125
 41
0.1034798535
  0
MTEXT
  5
2B4
100
AcDbEntity
  8
BALLOONS
100
AcDbMText
 62
2
  6
CONTINUOUS
  7
STANDARD
 71
2
 72
1
 10
2.3125
 20
-0.4575
 30
0.0
 11
1.0
 21
0.0
 31
0.0
 44
0.9
  1
BEARING_25
 40
0.125
 41
1.0347985348
  0
MTEXT
  5
2B5
100
AcDbEntity
  8
BALLOONS
100
AcDbMText
 62
2
  6
CONTINUOUS
  7
STANDARD
 71
2
 72
1
 10
3.6875
 20
-0.4575
 30
0.0
 11
1.0
 21
0.0
 31
0.0
 44
0.9
  1
1
 40
0.125
 41
0.1034798535
  0
MTEXT
  5
2B6
100
AcDbEntity
  8
BALLOONS
100
AcDbMText
 62
2
  6
CONTINUOUS
  7
STANDARD
 71
1
 72
1
 10
4.0625
 20
-0.4575
 30
0.0
 11
1.0
 21
0.0
 31
0.0
 44
0.9
  1
BEARING .25 .625 .190
 40
0.125
 41
2.1730769231
  0
MTEXT
  5
2B7
100
AcDbEntity
  8
BALLOONS
100
AcDbMText
 62
2
  6
CONTINUOUS
  7
STANDARD
 71
2
 72
1
 10
0.3125
 20
-0.7375
 30
0.0
 11
1.0
 21
0.0
 31
0.0
 44
0.9
  1
2
 40
0.125
 41
0.1034798535
  0
MTEXT
  5
2B8
100
AcDbEntity
  8
BALLOONS
100
AcDbMText
 62
2
  6
CONTINUOUS
  7
STANDARD
 71
2
 72
1
 10
2.3125
 20
-0.7375
 30
0.0
 11
1.0
 21
0.0
 31
0.0
 44
0.9
  1
BEARING_BRACKET
 40
0.125
 41
1.5521978022
  0
MTEXT
  5
2B9
100
AcDbEntity
  8
BALLOONS
100
AcDbMText
 62
2
  6
CONTINUOUS
  7
STANDARD
 71
2
 72
1
 10
3.6875
 20
-0.7375
 30
0.0
 11
1.0
 21
0.0
 31
0.0
 44
0.9
  1
1
 40
0.125
 41
0.1034798535
  0
MTEXT
  5
2BA
100
AcDbEntity
  8
BALLOONS
100
AcDbMText
 62
2
  6
CONTINUOUS
  7
STANDARD
 71
1
 72
1
 10
4.0625
 20
-0.7375
 30
0.0
 11
1.0
 21
0.0
 31
0.0
 44
0.9
  1
BEARING_BRACKET
 40
0.125
 41
1.5521978022
  0
MTEXT
  5
2BB
100
AcDbEntity
  8
BALLOONS
100
AcDbMText
 62
2
  6
CONTINUOUS
  7
STANDARD
 71
2
 72
1
 10
0.3125
 20
-1.0175
 30
0.0
 11
1.0
 21
0.0
 31
0.0
 44
0.9
  1
3
 40
0.125
 41
0.1034798535
  0
MTEXT
  5
2BC
100
AcDbEntity
  8
BALLOONS
100
AcDbMText
 62
2
  6
CONTINUOUS
  7
STANDARD
 71
2
 72
1
 10
2.3125
 20
-1.0175
 30
0.0
 11
1.0
 21
0.0
 31
0.0
 44
0.9
  1
FLW4SS
 40
0.125
 41
0.6208791209
  0
MTEXT
  5
2BD
100
AcDbEntity
  8
BALLOONS
100
AcDbMText
 62
2
  6
CONTINUOUS
  7
STANDARD
 71
2
 72
1
 10
3.6875
 20
-1.0175
 30
0.0
 11
1.0
 21
0.0
 31
0.0
 44
0.9
  1
8
 40
0.125
 41
0.1034798535
  0
MTEXT
  5
2BE
100
AcDbEntity
  8
BALLOONS
100
AcDbMText
 62
2
  6
CONTINUOUS
  7
STANDARD
 71
1
 72
1
 10
4.0625
 20
-1.0175
 30
0.0
 11
1.0
 21
0.0
 31
0.0
 44
0.9
  1
FLATWASHER #4
 40
0.125
 41
1.3452380952
  0
MTEXT
  5
2BF
100
AcDbEntity
  8
BALLOONS
100
AcDbMText
 62
2
  6
CONTINUOUS
  7
STANDARD
 71
2
 72
1
 10
0.3125
 20
-1.2975
 30
0.0
 11
1.0
 21
0.0
 31
0.0
 44
0.9
  1
4
 40
0.125
 41
0.1034798535
  0
MTEXT
  5
2C0
100
AcDbEntity
  8
BALLOONS
100
AcDbMText
 62
2
  6
CONTINUOUS
  7
STANDARD
 71
2
 72
1
 10
2.3125
 20
-1.2975
 30
0.0
 11
1.0
 21
0.0
 31
0.0
 44
0.9
  1
HN0440SS
 40
0.125
 41
0.8278388278
  0
MTEXT
  5
2C1
100
AcDbEntity
  8
BALLOONS
100
AcDbMText
 62
2
  6
CONTINUOUS
  7
STANDARD
 71
2
 72
1
 10
3.6875
 20
-1.2975
 30
0.0
 11
1.0
 21
0.0
 31
0.0
 44
0.9
  1
4
 40
0.125
 41
0.1034798535
  0
MTEXT
  5
2C2
100
AcDbEntity
  8
BALLOONS
100
AcDbMText
 62
2
  6
CONTINUOUS
  7
STANDARD
 71
1
 72
1
 10
4.0625
 20
-1.2975
 30
0.0
 11
1.0
 21
0.0
 31
0.0
 44
0.9
  1
HEX NUT #4-40
 40
0.125
 41
1.3452380952
  0
MTEXT
  5
2C3
100
AcDbEntity
  8
BALLOONS
100
AcDbMText
 62
2
  6
CONTINUOUS
  7
STANDARD
 71
2
 72
1
 10
0.3125
 20
-1.5775
 30
0.0
 11
1.0
 21
0.0
 31
0.0
 44
0.9
  1
5
 40
0.125
 41
0.1034798535
  0
MTEXT
  5
2C4
100
AcDbEntity
  8
BALLOONS
100
AcDbMText
 62
2
  6
CONTINUOUS
  7
STANDARD
 71
2
 72
1
 10
2.3125
 20
-1.5775
 30
0.0
 11
1.0
 21
0.0
 31
0.0
 44
0.9
  1
O-RING
 40
0.125
 41
0.6208791209
  0
MTEXT
  5
2C5
100
AcDbEntity
  8
BALLOONS
100
AcDbMText
 62
2
  6
CONTINUOUS
  7
STANDARD
 71
2
 72
1
 10
3.6875
 20
-1.5775
 30
0.0
 11
1.0
 21
0.0
 31
0.0
 44
0.9
  1
1
 40
0.125
 41
0.1034798535
  0
MTEXT
  5
2C6
100
AcDbEntity
  8
BALLOONS
100
AcDbMText
 62
2
  6
CONTINUOUS
  7
STANDARD
 71
1
 72
1
 10
4.0625
 20
-1.5775
 30
0.0
 11
1.0
 21
0.0
 31
0.0
 44
0.9
  1
O-RING .625 O.D 1/16 WIDE
 40
0.125
 41
2.586996337
  0
MTEXT
  5
2C7
100
AcDbEntity
  8
BALLOONS
100
AcDbMText
 62
2
  6
CONTINUOUS
  7
STANDARD
 71
2
 72
1
 10
0.3125
 20
-1.8575
 30
0.0
 11
1.0
 21
0.0
 31
0.0
 44
0.9
  1
6
 40
0.125
 41
0.1034798535
  0
MTEXT
  5
2C8
100
AcDbEntity
  8
BALLOONS
100
AcDbMText
 62
2
  6
CONTINUOUS
  7
STANDARD
 71
2
 72
1
 10
2.3125
 20
-1.8575
 30
0.0
 11
1.0
 21
0.0
 31
0.0
 44
0.9
  1
SHMS044006S
 40
0.125
 41
1.1382783883
  0
MTEXT
  5
2C9
100
AcDbEntity
  8
BALLOONS
100
AcDbMText
 62
2
  6
CONTINUOUS
  7
STANDARD
 71
2
 72
1
 10
3.6875
 20
-1.8575
 30
0.0
 11
1.0
 21
0.0
 31
0.0
 44
0.9
  1
4
 40
0.125
 41
0.1034798535
  0
MTEXT
  5
2CA
100
AcDbEntity
  8
BALLOONS
100
AcDbMText
 62
2
  6
CONTINUOUS
  7
STANDARD
 71
1
 72
1
 10
4.0625
 20
-1.8575
 30
0.0
 11
1.0
 21
0.0
 31
0.0
 44
0.9
  1
SOCKET HEAD #4-40x3/8
 40
0.125
 41
2.1730769231
  0
MTEXT
  5
2CB
100
AcDbEntity
  8
BALLOONS
100
AcDbMText
 62
2
  6
CONTINUOUS
  7
STANDARD
 71
2
 72
1
 10
0.3125
 20
-2.1375
 30
0.0
 11
1.0
 21
0.0
 31
0.0
 44
0.9
  1
7
 40
0.125
 41
0.1034798535
  0
MTEXT
  5
2CC
100
AcDbEntity
  8
BALLOONS
100
AcDbMText
 62
2
  6
CONTINUOUS
  7
STANDARD
 71
2
 72
1
 10
2.3125
 20
-2.1375
 30
0.0
 11
1.0
 21
0.0
 31
0.0
 44
0.9
  1
SLW04
 40
0.125
 41
0.5173992674
  0
MTEXT
  5
2CD
100
AcDbEntity
  8
BALLOONS
100
AcDbMText
 62
2
  6
CONTINUOUS
  7
STANDARD
 71
2
 72
1
 10
3.6875
 20
-2.1375
 30
0.0
 11
1.0
 21
0.0
 31
0.0
 44
0.9
  1
4
 40
0.125
 41
0.1034798535
  0
MTEXT
  5
2CE
100
AcDbEntity
  8
BALLOONS
100
AcDbMText
 62
2
  6
CONTINUOUS
  7
STANDARD
 71
1
 72
1
 10
4.0625
 20
-2.1375
 30
0.0
 11
1.0
 21
0.0
 31
0.0
 44
0.9
  1
LOCK WASHER #4
 40
0.125
 41
1.4487179487
  0
ENDBLK
  5
2CF
100
AcDbEntity
  8
0
100
AcDbBlockEnd
  0
ENDSEC
  0
SECTION
  2
ENTITIES
  0
MTEXT
  5
2D0
100
AcDbEntity
  8
0
100
AcDbMText
 62
2
  6
CONTINUOUS
  7
TEXTSTYLE_2
 71
1
 72
1
 10
11.8224877471
 20
1.1685174754
 30
0.0
 11
1.0
 21
0.0
 31
0.0
 44
0.9
  1
FSCM NO. 16469
 40
0.125
 41
1.4487179487
  0
SPLINE
  5
2D1
100
AcDbEntity
  8
0
100
AcDbSpline
 62
7
  6
CONTINUOUS
 70
0
 71
3
 72
20
 73
16
 74
14
 42
0.0000001
 43
0.0000001
 44
0.0000000001
 12
0.2000941658
 22
-0.0006860571
 32
0.0
 13
-0.2000941658
 23
-0.0006860571
 33
0.0
 40
0.0
 40
0.0
 40
0.0
 40
0.0
 40
0.0769230769
 40
0.1538461538
 40
0.2307692308
 40
0.3076923077
 40
0.3846153846
 40
0.4615384615
 40
0.5384615385
 40
0.6153846154
 40
0.6923076923
 40
0.7692307692
 40
0.8461538462
 40
0.9230769231
 40
1.0
 40
1.0
 40
1.0
 40
1.0
 10
13.4614031732
 20
5.3885199602
 30
0.0
 10
13.4665337928
 20
5.388502369
 30
0.0
 10
13.4764620901
 20
5.3873055245
 30
0.0
 10
13.4907444087
 20
5.3819000534
 30
0.0
 10
13.5032505039
 20
5.3732600327
 30
0.0
 10
13.5133436117
 20
5.3618711075
 30
0.0
 10
13.5204130382
 20
5.3483995785
 30
0.0
 10
13.5240543658
 20
5.3336271725
 30
0.0
 10
13.5240543658
 20
5.3184127479
 30
0.0
 10
13.5204130382
 20
5.3036403419
 30
0.0
 10
13.5133436117
 20
5.2901688129
 30
0.0
 10
13.5032505039
 20
5.2787798877
 30
0.0
 10
13.4907444087
 20
5.270139867
 30
0.0
 10
13.4764620901
 20
5.2647343959
 30
0.0
 10
13.4665337928
 20
5.2635375514
 30
0.0
 10
13.4614031732
 20
5.2635199602
 30
0.0
 11
13.4614031732
 21
5.3885199602
 31
0.0
 11
13.4763604022
 21
5.3867038238
 31
0.0
 11
13.4904483715
 21
5.3813609618
 31
0.0
 11
13.5028483393
 21
5.372801882
 31
0.0
 11
13.5128396648
 21
5.3615240069
 31
0.0
 11
13.5198416884
 21
5.3481827656
 31
0.0
 11
13.5234474778
 21
5.3335535027
 31
0.0
 11
13.5234474778
 21
5.3184864177
 31
0.0
 11
13.5198416884
 21
5.3038571548
 31
0.0
 11
13.5128396648
 21
5.2905159135
 31
0.0
 11
13.5028483393
 21
5.2792380384
 31
0.0
 11
13.4904483715
 21
5.2706789586
 31
0.0
 11
13.4763604022
 21
5.2653360966
 31
0.0
 11
13.4614031732
 21
5.2635199602
 31
0.0
  0
SPLINE
  5
2D2
100
AcDbEntity
  8
0
100
AcDbSpline
 62
7
  6
CONTINUOUS
 70
0
 71
3
 72
20
 73
16
 74
14
 42
0.0000001
 43
0.0000001
 44
0.0000000001
 12
-0.2000941658
 22
0.0006860571
 32
0.0
 13
0.2000941658
 23
0.0006860571
 33
0.0
 40
0.0
 40
0.0
 40
0.0
 40
0.0
 40
0.0769230769
 40
0.1538461538
 40
0.2307692308
 40
0.3076923077
 40
0.3846153846
 40
0.4615384615
 40
0.5384615385
 40
0.6153846154
 40
0.6923076923
 40
0.7692307692
 40
0.8461538462
 40
0.9230769231
 40
1.0
 40
1.0
 40
1.0
 40
1.0
 10
13.4614031732
 20
5.2635199602
 30
0.0
 10
13.4562725536
 20
5.2635375514
 30
0.0
 10
13.4463442563
 20
5.2647343959
 30
0.0
 10
13.4320619377
 20
5.270139867
 30
0.0
 10
13.4195558425
 20
5.2787798877
 30
0.0
 10
13.4094627347
 20
5.2901688129
 30
0.0
 10
13.4023933082
 20
5.3036403419
 30
0.0
 10
13.3987519806
 20
5.3184127479
 30
0.0
 10
13.3987519806
 20
5.3336271725
 30
0.0
 10
13.4023933082
 20
5.3483995785
 30
0.0
 10
13.4094627347
 20
5.3618711075
 30
0.0
 10
13.4195558425
 20
5.3732600327
 30
0.0
 10
13.4320619377
 20
5.3819000534
 30
0.0
 10
13.4463442563
 20
5.3873055245
 30
0.0
 10
13.4562725536
 20
5.388502369
 30
0.0
 10
13.4614031732
 20
5.3885199602
 30
0.0
 11
13.4614031732
 21
5.2635199602
 31
0.0
 11
13.4464459442
 21
5.2653360966
 31
0.0
 11
13.4323579749
 21
5.2706789586
 31
0.0
 11
13.4199580071
 21
5.2792380384
 31
0.0
 11
13.4099666816
 21
5.2905159135
 31
0.0
 11
13.402964658
 21
5.3038571548
 31
0.0
 11
13.3993588686
 21
5.3184864177
 31
0.0
 11
13.3993588686
 21
5.3335535027
 31
0.0
 11
13.402964658
 21
5.3481827656
 31
0.0
 11
13.4099666816
 21
5.3615240069
 31
0.0
 11
13.4199580071
 21
5.372801882
 31
0.0
 11
13.4323579749
 21
5.3813609618
 31
0.0
 11
13.4464459442
 21
5.3867038238
 31
0.0
 11
13.4614031732
 21
5.3885199602
 31
0.0
  0
SPLINE
  5
2D3
100
AcDbEntity
  8
0
100
AcDbSpline
 62
7
  6
CONTINUOUS
 70
0
 71
3
 72
20
 73
16
 74
14
 42
0.0000001
 43
0.0000001
 44
0.0000000001
 12
0.2000941658
 22
-0.0006860571
 32
0.0
 13
-0.2000941658
 23
-0.0006860571
 33
0.0
 40
0.0
 40
0.0
 40
0.0
 40
0.0
 40
0.0769230769
 40
0.1538461538
 40
0.2307692308
 40
0.3076923077
 40
0.3846153846
 40
0.4615384615
 40
0.5384615385
 40
0.6153846154
 40
0.6923076923
 40
0.7692307692
 40
0.8461538462
 40
0.9230769231
 40
1.0
 40
1.0
 40
1.0
 40
1.0
 10
13.4614031732
 20
6.5135199602
 30
0.0
 10
13.4665337928
 20
6.513502369
 30
0.0
 10
13.4764620901
 20
6.5123055245
 30
0.0
 10
13.4907444087
 20
6.5069000534
 30
0.0
 10
13.5032505039
 20
6.4982600327
 30
0.0
 10
13.5133436117
 20
6.4868711075
 30
0.0
 10
13.5204130382
 20
6.4733995785
 30
0.0
 10
13.5240543658
 20
6.4586271725
 30
0.0
 10
13.5240543658
 20
6.4434127479
 30
0.0
 10
13.5204130382
 20
6.4286403419
 30
0.0
 10
13.5133436117
 20
6.4151688129
 30
0.0
 10
13.5032505039
 20
6.4037798877
 30
0.0
 10
13.4907444087
 20
6.395139867
 30
0.0
 10
13.4764620901
 20
6.3897343959
 30
0.0
 10
13.4665337928
 20
6.3885375514
 30
0.0
 10
13.4614031732
 20
6.3885199602
 30
0.0
 11
13.4614031732
 21
6.5135199602
 31
0.0
 11
13.4763604022
 21
6.5117038238
 31
0.0
 11
13.4904483715
 21
6.5063609618
 31
0.0
 11
13.5028483393
 21
6.497801882
 31
0.0
 11
13.5128396648
 21
6.4865240069
 31
0.0
 11
13.5198416884
 21
6.4731827656
 31
0.0
 11
13.5234474778
 21
6.4585535027
 31
0.0
 11
13.5234474778
 21
6.4434864177
 31
0.0
 11
13.5198416884
 21
6.4288571548
 31
0.0
 11
13.5128396648
 21
6.4155159135
 31
0.0
 11
13.5028483393
 21
6.4042380384
 31
0.0
 11
13.4904483715
 21
6.3956789586
 31
0.0
 11
13.4763604022
 21
6.3903360966
 31
0.0
 11
13.4614031732
 21
6.3885199602
 31
0.0
  0
SPLINE
  5
2D4
100
AcDbEntity
  8
0
100
AcDbSpline
 62
7
  6
CONTINUOUS
 70
0
 71
3
 72
20
 73
16
 74
14
 42
0.0000001
 43
0.0000001
 44
0.0000000001
 12
-0.2000941658
 22
0.0006860571
 32
0.0
 13
0.2000941658
 23
0.0006860571
 33
0.0
 40
0.0
 40
0.0
 40
0.0
 40
0.0
 40
0.0769230769
 40
0.1538461538
 40
0.2307692308
 40
0.3076923077
 40
0.3846153846
 40
0.4615384615
 40
0.5384615385
 40
0.6153846154
 40
0.6923076923
 40
0.7692307692
 40
0.8461538462
 40
0.9230769231
 40
1.0
 40
1.0
 40
1.0
 40
1.0
 10
13.4614031732
 20
6.3885199602
 30
0.0
 10
13.4562725536
 20
6.3885375514
 30
0.0
 10
13.4463442563
 20
6.3897343959
 30
0.0
 10
13.4320619377
 20
6.395139867
 30
0.0
 10
13.4195558425
 20
6.4037798877
 30
0.0
 10
13.4094627347
 20
6.4151688129
 30
0.0
 10
13.4023933082
 20
6.4286403419
 30
0.0
 10
13.3987519806
 20
6.4434127479
 30
0.0
 10
13.3987519806
 20
6.4586271725
 30
0.0
 10
13.4023933082
 20
6.4733995785
 30
0.0
 10
13.4094627347
 20
6.4868711075
 30
0.0
 10
13.4195558425
 20
6.4982600327
 30
0.0
 10
13.4320619377
 20
6.5069000534
 30
0.0
 10
13.4463442563
 20
6.5123055245
 30
0.0
 10
13.4562725536
 20
6.513502369
 30
0.0
 10
13.4614031732
 20
6.5135199602
 30
0.0
 11
13.4614031732
 21
6.3885199602
 31
0.0
 11
13.4464459442
 21
6.3903360966
 31
0.0
 11
13.4323579749
 21
6.3956789586
 31
0.0
 11
13.4199580071
 21
6.4042380384
 31
0.0
 11
13.4099666816
 21
6.4155159135
 31
0.0
 11
13.402964658
 21
6.4288571548
 31
0.0
 11
13.3993588686
 21
6.4434864177
 31
0.0
 11
13.3993588686
 21
6.4585535027
 31
0.0
 11
13.402964658
 21
6.4731827656
 31
0.0
 11
13.4099666816
 21
6.4865240069
 31
0.0
 11
13.4199580071
 21
6.497801882
 31
0.0
 11
13.4323579749
 21
6.5063609618
 31
0.0
 11
13.4464459442
 21
6.5117038238
 31
0.0
 11
13.4614031732
 21
6.5135199602
 31
0.0
  0
HATCH
  5
2D5
100
AcDbEntity
  8
0
100
AcDbHatch
 62
2
  6
CONTINUOUS
 10
0.0
 20
0.0
 30
0.0
210
0.0
220
0.0
230
1.0
  2
default__1
 70
0
 71
1
 91
2
 92
1
 93
2
 72
4
 94
3
 73
0
 74
0
 95
20
 96
16
 40
0.0
 40
0.0
 40
0.0
 40
0.0
 40
0.0769230769
 40
0.1538461538
 40
0.2307692308
 40
0.3076923077
 40
0.3846153846
 40
0.4615384615
 40
0.5384615385
 40
0.6153846154
 40
0.6923076923
 40
0.7692307692
 40
0.8461538462
 40
0.9230769231
 40
1.0
 40
1.0
 40
1.0
 40
1.0
 10
13.4614031732
 20
5.3885199602
 10
13.4665337928
 20
5.388502369
 10
13.4764620901
 20
5.3873055245
 10
13.4907444087
 20
5.3819000534
 10
13.5032505039
 20
5.3732600327
 10
13.5133436117
 20
5.3618711075
 10
13.5204130382
 20
5.3483995785
 10
13.5240543658
 20
5.3336271725
 10
13.5240543658
 20
5.3184127479
 10
13.5204130382
 20
5.3036403419
 10
13.5133436117
 20
5.2901688129
 10
13.5032505039
 20
5.2787798877
 10
13.4907444087
 20
5.270139867
 10
13.4764620901
 20
5.2647343959
 10
13.4665337928
 20
5.2635375514
 10
13.4614031732
 20
5.2635199602
 72
4
 94
3
 73
0
 74
0
 95
20
 96
16
 40
0.0
 40
0.0
 40
0.0
 40
0.0
 40
0.0769230769
 40
0.1538461538
 40
0.2307692308
 40
0.3076923077
 40
0.3846153846
 40
0.4615384615
 40
0.5384615385
 40
0.6153846154
 40
0.6923076923
 40
0.7692307692
 40
0.8461538462
 40
0.9230769231
 40
1.0
 40
1.0
 40
1.0
 40
1.0
 10
13.4614031732
 20
5.2635199602
 10
13.4562725536
 20
5.2635375514
 10
13.4463442563
 20
5.2647343959
 10
13.4320619377
 20
5.270139867
 10
13.4195558425
 20
5.2787798877
 10
13.4094627347
 20
5.2901688129
 10
13.4023933082
 20
5.3036403419
 10
13.3987519806
 20
5.3184127479
 10
13.3987519806
 20
5.3336271725
 10
13.4023933082
 20
5.3483995785
 10
13.4094627347
 20
5.3618711075
 10
13.4195558425
 20
5.3732600327
 10
13.4320619377
 20
5.3819000534
 10
13.4463442563
 20
5.3873055245
 10
13.4562725536
 20
5.388502369
 10
13.4614031732
 20
5.3885199602
 97
4
330
2D1
330
2D2
330
2D3
330
2D4
 92
1
 93
2
 72
4
 94
3
 73
0
 74
0
 95
20
 96
16
 40
0.0
 40
0.0
 40
0.0
 40
0.0
 40
0.0769230769
 40
0.1538461538
 40
0.2307692308
 40
0.3076923077
 40
0.3846153846
 40
0.4615384615
 40
0.5384615385
 40
0.6153846154
 40
0.6923076923
 40
0.7692307692
 40
0.8461538462
 40
0.9230769231
 40
1.0
 40
1.0
 40
1.0
 40
1.0
 10
13.4614031732
 20
6.5135199602
 10
13.4665337928
 20
6.513502369
 10
13.4764620901
 20
6.5123055245
 10
13.4907444087
 20
6.5069000534
 10
13.5032505039
 20
6.4982600327
 10
13.5133436117
 20
6.4868711075
 10
13.5204130382
 20
6.4733995785
 10
13.5240543658
 20
6.4586271725
 10
13.5240543658
 20
6.4434127479
 10
13.5204130382
 20
6.4286403419
 10
13.5133436117
 20
6.4151688129
 10
13.5032505039
 20
6.4037798877
 10
13.4907444087
 20
6.395139867
 10
13.4764620901
 20
6.3897343959
 10
13.4665337928
 20
6.3885375514
 10
13.4614031732
 20
6.3885199602
 72
4
 94
3
 73
0
 74
0
 95
20
 96
16
 40
0.0
 40
0.0
 40
0.0
 40
0.0
 40
0.0769230769
 40
0.1538461538
 40
0.2307692308
 40
0.3076923077
 40
0.3846153846
 40
0.4615384615
 40
0.5384615385
 40
0.6153846154
 40
0.6923076923
 40
0.7692307692
 40
0.8461538462
 40
0.9230769231
 40
1.0
 40
1.0
 40
1.0
 40
1.0
 10
13.4614031732
 20
6.3885199602
 10
13.4562725536
 20
6.3885375514
 10
13.4463442563
 20
6.3897343959
 10
13.4320619377
 20
6.395139867
 10
13.4195558425
 20
6.4037798877
 10
13.4094627347
 20
6.4151688129
 10
13.4023933082
 20
6.4286403419
 10
13.3987519806
 20
6.4434127479
 10
13.3987519806
 20
6.4586271725
 10
13.4023933082
 20
6.4733995785
 10
13.4094627347
 20
6.4868711075
 10
13.4195558425
 20
6.4982600327
 10
13.4320619377
 20
6.5069000534
 10
13.4463442563
 20
6.5123055245
 10
13.4562725536
 20
6.513502369
 10
13.4614031732
 20
6.5135199602
 97
4
330
2D1
330
2D2
330
2D3
330
2D4
 75
0
 76
0
 52
30.0
 41
0.017159109
 77
0
 78
1
 53
30.0
 43
0.0
 44
0.0
 45
-0.0085795545
 46
0.0148602243
 79
0
 98
1
 10
0.0
 20
0.0
  0
SPLINE
  5
2D6
100
AcDbEntity
  8
0
100
AcDbSpline
 62
7
  6
CONTINUOUS
 70
0
 71
3
 72
13
 73
9
 74
7
 42
0.0000001
 43
0.0000001
 44
0.0000000001
 12
0.000211183
 22
0.048680629
 32
0.0
 13
0.048680629
 23
0.000211183
 33
0.0
 40
0.0
 40
0.0
 40
0.0
 40
0.0
 40
0.1666666667
 40
0.3333333333
 40
0.5
 40
0.6666666667
 40
0.8333333333
 40
1.0
 40
1.0
 40
1.0
 40
1.0
 10
13.0089031732
 20
6.4832049996
 30
0.0
 10
13.0089149056
 20
6.485909479
 30
0.0
 10
13.0095944292
 20
6.4911138446
 30
0.0
 10
13.0126639219
 20
6.4985438578
 30
0.0
 10
13.01753753
 20
6.5048856034
 30
0.0
 10
13.0238792756
 20
6.5097592115
 30
0.0
 10
13.0313092888
 20
6.5128287042
 30
0.0
 10
13.0365136544
 20
6.5135082278
 30
0.0
 10
13.0392181338
 20
6.5135199602
 30
0.0
 11
13.0089031732
 21
6.4832049996
 31
0.0
 11
13.0099361304
 21
6.4910510887
 31
0.0
 11
13.0129646078
 21
6.4983624799
 31
0.0
 11
13.0177822196
 21
6.5046409138
 31
0.0
 11
13.0240606535
 21
6.5094585256
 31
0.0
 11
13.0313720447
 21
6.512487003
 31
0.0
 11
13.0392181338
 21
6.5135199602
 31
0.0
  0
LINE
  5
2D7
100
AcDbEntity
  8
0
100
AcDbLine
 62
7
  6
CONTINUOUS
 10
13.0392181338
 20
6.5135199602
 11
13.3685882126
 21
6.5135199602
  0
SPLINE
  5
2D8
100
AcDbEntity
  8
0
100
AcDbSpline
 62
7
  6
CONTINUOUS
 70
0
 71
3
 72
13
 73
9
 74
7
 42
0.0000001
 43
0.0000001
 44
0.0000000001
 12
0.048680629
 22
-0.000211183
 32
0.0
 13
0.000211183
 23
-0.048680629
 33
0.0
 40
0.0
 40
0.0
 40
0.0
 40
0.0
 40
0.1666666667
 40
0.3333333333
 40
0.5
 40
0.6666666667
 40
0.8333333333
 40
1.0
 40
1.0
 40
1.0
 40
1.0
 10
13.3685882126
 20
6.5135199602
 30
0.0
 10
13.371292692
 20
6.5135082278
 30
0.0
 10
13.3764970576
 20
6.5128287042
 30
0.0
 10
13.3839270708
 20
6.5097592115
 30
0.0
 10
13.3902688164
 20
6.5048856034
 30
0.0
 10
13.3951424245
 20
6.4985438578
 30
0.0
 10
13.3982119172
 20
6.4911138446
 30
0.0
 10
13.3988914408
 20
6.485909479
 30
0.0
 10
13.3989031732
 20
6.4832049996
 30
0.0
 11
13.3685882126
 21
6.5135199602
 31
0.0
 11
13.3764343017
 21
6.512487003
 31
0.0
 11
13.3837456929
 21
6.5094585256
 31
0.0
 11
13.3900241268
 21
6.5046409138
 31
0.0
 11
13.3948417386
 21
6.4983624799
 31
0.0
 11
13.397870216
 21
6.4910510887
 31
0.0
 11
13.3989031732
 21
6.4832049996
 31
0.0
  0
LINE
  5
2D9
100
AcDbEntity
  8
0
100
AcDbLine
 62
7
  6
CONTINUOUS
 10
13.3989031732
 20
6.4832049996
 11
13.3989031732
 21
6.3985199602
  0
LINE
  5
2DA
100
AcDbEntity
  8
0
100
AcDbLine
 62
7
  6
CONTINUOUS
 10
13.3989031732
 20
6.3985199602
 11
13.3739031732
 21
6.3985199602
  0
LINE
  5
2DB
100
AcDbEntity
  8
0
100
AcDbLine
 62
7
  6
CONTINUOUS
 10
13.3739031732
 20
6.3985199602
 11
13.3739031732
 21
6.1985199602
  0
LINE
  5
2DC
100
AcDbEntity
  8
0
100
AcDbLine
 62
7
  6
CONTINUOUS
 10
13.3739031732
 20
6.1985199602
 11
13.3989031732
 21
6.1985199602
  0
LINE
  5
2DD
100
AcDbEntity
  8
0
100
AcDbLine
 62
7
  6
CONTINUOUS
 10
13.3989031732
 20
6.1985199602
 11
13.3989031732
 21
6.1385199602
  0
LINE
  5
2DE
100
AcDbEntity
  8
0
100
AcDbLine
 62
7
  6
CONTINUOUS
 10
13.3989031732
 20
6.1385199602
 11
13.0089031732
 21
6.1385199602
  0
LINE
  5
2DF
100
AcDbEntity
  8
0
100
AcDbLine
 62
7
  6
CONTINUOUS
 10
13.0089031732
 20
6.1385199602
 11
13.0089031732
 21
6.1985199602
  0
LINE
  5
2E0
100
AcDbEntity
  8
0
100
AcDbLine
 62
7
  6
CONTINUOUS
 10
13.0089031732
 20
6.1985199602
 11
13.0339031732
 21
6.1985199602
  0
LINE
  5
2E1
100
AcDbEntity
  8
0
100
AcDbLine
 62
7
  6
CONTINUOUS
 10
13.0339031732
 20
6.1985199602
 11
13.0339031732
 21
6.3985199602
  0
LINE
  5
2E2
100
AcDbEntity
  8
0
100
AcDbLine
 62
7
  6
CONTINUOUS
 10
13.0339031732
 20
6.3985199602
 11
13.0089031732
 21
6.3985199602
  0
LINE
  5
2E3
100
AcDbEntity
  8
0
100
AcDbLine
 62
7
  6
CONTINUOUS
 10
13.0089031732
 20
6.3985199602
 11
13.0089031732
 21
6.4832049996
  0
SPLINE
  5
2E4
100
AcDbEntity
  8
0
100
AcDbSpline
 62
7
  6
CONTINUOUS
 70
0
 71
3
 72
13
 73
9
 74
7
 42
0.0000001
 43
0.0000001
 44
0.0000000001
 12
-0.048680629
 22
0.000211183
 32
0.0
 13
-0.000211183
 23
0.048680629
 33
0.0
 40
0.0
 40
0.0
 40
0.0
 40
0.0
 40
0.1666666667
 40
0.3333333333
 40
0.5
 40
0.6666666667
 40
0.8333333333
 40
1.0
 40
1.0
 40
1.0
 40
1.0
 10
13.0392181338
 20
5.2635199602
 30
0.0
 10
13.0365136544
 20
5.2635316926
 30
0.0
 10
13.0313092888
 20
5.2642112162
 30
0.0
 10
13.0238792756
 20
5.2672807089
 30
0.0
 10
13.01753753
 20
5.272154317
 30
0.0
 10
13.0126639219
 20
5.2784960626
 30
0.0
 10
13.0095944292
 20
5.2859260758
 30
0.0
 10
13.0089149056
 20
5.2911304414
 30
0.0
 10
13.0089031732
 20
5.2938349208
 30
0.0
 11
13.0392181338
 21
5.2635199602
 31
0.0
 11
13.0313720447
 21
5.2645529174
 31
0.0
 11
13.0240606535
 21
5.2675813948
 31
0.0
 11
13.0177822196
 21
5.2723990066
 31
0.0
 11
13.0129646078
 21
5.2786774405
 31
0.0
 11
13.0099361304
 21
5.2859888317
 31
0.0
 11
13.0089031732
 21
5.2938349208
 31
0.0
  0
LINE
  5
2E5
100
AcDbEntity
  8
0
100
AcDbLine
 62
7
  6
CONTINUOUS
 10
13.0089031732
 20
5.2938349208
 11
13.0089031732
 21
5.3785199602
  0
LINE
  5
2E6
100
AcDbEntity
  8
0
100
AcDbLine
 62
7
  6
CONTINUOUS
 10
13.0089031732
 20
5.3785199602
 11
13.0339031732
 21
5.3785199602
  0
LINE
  5
2E7
100
AcDbEntity
  8
0
100
AcDbLine
 62
7
  6
CONTINUOUS
 10
13.0339031732
 20
5.3785199602
 11
13.0339031732
 21
5.5785199602
  0
LINE
  5
2E8
100
AcDbEntity
  8
0
100
AcDbLine
 62
7
  6
CONTINUOUS
 10
13.0339031732
 20
5.5785199602
 11
13.0089031732
 21
5.5785199602
  0
LINE
  5
2E9
100
AcDbEntity
  8
0
100
AcDbLine
 62
7
  6
CONTINUOUS
 10
13.0089031732
 20
5.5785199602
 11
13.0089031732
 21
5.6385199602
  0
LINE
  5
2EA
100
AcDbEntity
  8
0
100
AcDbLine
 62
7
  6
CONTINUOUS
 10
13.0089031732
 20
5.6385199602
 11
13.3989031732
 21
5.6385199602
  0
LINE
  5
2EB
100
AcDbEntity
  8
0
100
AcDbLine
 62
7
  6
CONTINUOUS
 10
13.3989031732
 20
5.6385199602
 11
13.3989031732
 21
5.5785199602
  0
LINE
  5
2EC
100
AcDbEntity
  8
0
100
AcDbLine
 62
7
  6
CONTINUOUS
 10
13.3989031732
 20
5.5785199602
 11
13.3739031732
 21
5.5785199602
  0
LINE
  5
2ED
100
AcDbEntity
  8
0
100
AcDbLine
 62
7
  6
CONTINUOUS
 10
13.3739031732
 20
5.5785199602
 11
13.3739031732
 21
5.3785199602
  0
LINE
  5
2EE
100
AcDbEntity
  8
0
100
AcDbLine
 62
7
  6
CONTINUOUS
 10
13.3739031732
 20
5.3785199602
 11
13.3989031732
 21
5.3785199602
  0
LINE
  5
2EF
100
AcDbEntity
  8
0
100
AcDbLine
 62
7
  6
CONTINUOUS
 10
13.3989031732
 20
5.3785199602
 11
13.3989031732
 21
5.2938349208
  0
SPLINE
  5
2F0
100
AcDbEntity
  8
0
100
AcDbSpline
 62
7
  6
CONTINUOUS
 70
0
 71
3
 72
13
 73
9
 74
7
 42
0.0000001
 43
0.0000001
 44
0.0000000001
 12
-0.000211183
 22
-0.048680629
 32
0.0
 13
-0.048680629
 23
-0.000211183
 33
0.0
 40
0.0
 40
0.0
 40
0.0
 40
0.0
 40
0.1666666667
 40
0.3333333333
 40
0.5
 40
0.6666666667
 40
0.8333333333
 40
1.0
 40
1.0
 40
1.0
 40
1.0
 10
13.3989031732
 20
5.2938349208
 30
0.0
 10
13.3988914408
 20
5.2911304414
 30
0.0
 10
13.3982119172
 20
5.2859260758
 30
0.0
 10
13.3951424245
 20
5.2784960626
 30
0.0
 10
13.3902688164
 20
5.272154317
 30
0.0
 10
13.3839270708
 20
5.2672807089
 30
0.0
 10
13.3764970576
 20
5.2642112162
 30
0.0
 10
13.371292692
 20
5.2635316926
 30
0.0
 10
13.3685882126
 20
5.2635199602
 30
0.0
 11
13.3989031732
 21
5.2938349208
 31
0.0
 11
13.397870216
 21
5.2859888317
 31
0.0
 11
13.3948417386
 21
5.2786774405
 31
0.0
 11
13.3900241268
 21
5.2723990066
 31
0.0
 11
13.3837456929
 21
5.2675813948
 31
0.0
 11
13.3764343017
 21
5.2645529174
 31
0.0
 11
13.3685882126
 21
5.2635199602
 31
0.0
  0
LINE
  5
2F1
100
AcDbEntity
  8
0
100
AcDbLine
 62
7
  6
CONTINUOUS
 10
13.3685882126
 20
5.2635199602
 11
13.0392181338
 21
5.2635199602
  0
HATCH
  5
2F2
100
AcDbEntity
  8
0
100
AcDbHatch
 62
2
  6
CONTINUOUS
 10
0.0
 20
0.0
 30
0.0
210
0.0
220
0.0
230
1.0
  2
default__2
 70
0
 71
1
 91
2
 92
1
 93
14
 72
4
 94
3
 73
0
 74
0
 95
13
 96
9
 40
0.0
 40
0.0
 40
0.0
 40
0.0
 40
0.1666666667
 40
0.3333333333
 40
0.5
 40
0.6666666667
 40
0.8333333333
 40
1.0
 40
1.0
 40
1.0
 40
1.0
 10
13.0089031732
 20
6.4832049996
 10
13.0089149056
 20
6.485909479
 10
13.0095944292
 20
6.4911138446
 10
13.0126639219
 20
6.4985438578
 10
13.01753753
 20
6.5048856034
 10
13.0238792756
 20
6.5097592115
 10
13.0313092888
 20
6.5128287042
 10
13.0365136544
 20
6.5135082278
 10
13.0392181338
 20
6.5135199602
 72
1
 10
13.0392181338
 20
6.5135199602
 11
13.3685882126
 21
6.5135199602
 72
4
 94
3
 73
0
 74
0
 95
13
 96
9
 40
0.0
 40
0.0
 40
0.0
 40
0.0
 40
0.1666666667
 40
0.3333333333
 40
0.5
 40
0.6666666667
 40
0.8333333333
 40
1.0
 40
1.0
 40
1.0
 40
1.0
 10
13.3685882126
 20
6.5135199602
 10
13.371292692
 20
6.5135082278
 10
13.3764970576
 20
6.5128287042
 10
13.3839270708
 20
6.5097592115
 10
13.3902688164
 20
6.5048856034
 10
13.3951424245
 20
6.4985438578
 10
13.3982119172
 20
6.4911138446
 10
13.3988914408
 20
6.485909479
 10
13.3989031732
 20
6.4832049996
 72
1
 10
13.3989031732
 20
6.4832049996
 11
13.3989031732
 21
6.3985199602
 72
1
 10
13.3989031732
 20
6.3985199602
 11
13.3739031732
 21
6.3985199602
 72
1
 10
13.3739031732
 20
6.3985199602
 11
13.3739031732
 21
6.1985199602
 72
1
 10
13.3739031732
 20
6.1985199602
 11
13.3989031732
 21
6.1985199602
 72
1
 10
13.3989031732
 20
6.1985199602
 11
13.3989031732
 21
6.1385199602
 72
1
 10
13.3989031732
 20
6.1385199602
 11
13.0089031732
 21
6.1385199602
 72
1
 10
13.0089031732
 20
6.1385199602
 11
13.0089031732
 21
6.1985199602
 72
1
 10
13.0089031732
 20
6.1985199602
 11
13.0339031732
 21
6.1985199602
 72
1
 10
13.0339031732
 20
6.1985199602
 11
13.0339031732
 21
6.3985199602
 72
1
 10
13.0339031732
 20
6.3985199602
 11
13.0089031732
 21
6.3985199602
 72
1
 10
13.0089031732
 20
6.3985199602
 11
13.0089031732
 21
6.4832049996
 97
28
330
2D6
330
2D7
330
2D8
330
2D9
330
2DA
330
2DB
330
2DC
330
2DD
330
2DE
330
2DF
330
2E0
330
2E1
330
2E2
330
2E3
330
2E4
330
2E5
330
2E6
330
2E7
330
2E8
330
2E9
330
2EA
330
2EB
330
2EC
330
2ED
330
2EE
330
2EF
330
2F0
330
2F1
 92
1
 93
14
 72
4
 94
3
 73
0
 74
0
 95
13
 96
9
 40
0.0
 40
0.0
 40
0.0
 40
0.0
 40
0.1666666667
 40
0.3333333333
 40
0.5
 40
0.6666666667
 40
0.8333333333
 40
1.0
 40
1.0
 40
1.0
 40
1.0
 10
13.0392181338
 20
5.2635199602
 10
13.0365136544
 20
5.2635316926
 10
13.0313092888
 20
5.2642112162
 10
13.0238792756
 20
5.2672807089
 10
13.01753753
 20
5.272154317
 10
13.0126639219
 20
5.2784960626
 10
13.0095944292
 20
5.2859260758
 10
13.0089149056
 20
5.2911304414
 10
13.0089031732
 20
5.2938349208
 72
1
 10
13.0089031732
 20
5.2938349208
 11
13.0089031732
 21
5.3785199602
 72
1
 10
13.0089031732
 20
5.3785199602
 11
13.0339031732
 21
5.3785199602
 72
1
 10
13.0339031732
 20
5.3785199602
 11
13.0339031732
 21
5.5785199602
 72
1
 10
13.0339031732
 20
5.5785199602
 11
13.0089031732
 21
5.5785199602
 72
1
 10
13.0089031732
 20
5.5785199602
 11
13.0089031732
 21
5.6385199602
 72
1
 10
13.0089031732
 20
5.6385199602
 11
13.3989031732
 21
5.6385199602
 72
1
 10
13.3989031732
 20
5.6385199602
 11
13.3989031732
 21
5.5785199602
 72
1
 10
13.3989031732
 20
5.5785199602
 11
13.3739031732
 21
5.5785199602
 72
1
 10
13.3739031732
 20
5.5785199602
 11
13.3739031732
 21
5.3785199602
 72
1
 10
13.3739031732
 20
5.3785199602
 11
13.3989031732
 21
5.3785199602
 72
1
 10
13.3989031732
 20
5.3785199602
 11
13.3989031732
 21
5.2938349208
 72
4
 94
3
 73
0
 74
0
 95
13
 96
9
 40
0.0
 40
0.0
 40
0.0
 40
0.0
 40
0.1666666667
 40
0.3333333333
 40
0.5
 40
0.6666666667
 40
0.8333333333
 40
1.0
 40
1.0
 40
1.0
 40
1.0
 10
13.3989031732
 20
5.2938349208
 10
13.3988914408
 20
5.2911304414
 10
13.3982119172
 20
5.2859260758
 10
13.3951424245
 20
5.2784960626
 10
13.3902688164
 20
5.272154317
 10
13.3839270708
 20
5.2672807089
 10
13.3764970576
 20
5.2642112162
 10
13.371292692
 20
5.2635316926
 10
13.3685882126
 20
5.2635199602
 72
1
 10
13.3685882126
 20
5.2635199602
 11
13.0392181338
 21
5.2635199602
 97
28
330
2D6
330
2D7
330
2D8
330
2D9
330
2DA
330
2DB
330
2DC
330
2DD
330
2DE
330
2DF
330
2E0
330
2E1
330
2E2
330
2E3
330
2E4
330
2E5
330
2E6
330
2E7
330
2E8
330
2E9
330
2EA
330
2EB
330
2EC
330
2ED
330
2EE
330
2EF
330
2F0
330
2F1
 75
0
 76
0
 52
325.0
 41
0.0941450917
 77
0
 78
1
 53
325.0
 43
0.0
 44
0.0
 45
0.0539994062
 46
0.0771191443
 79
0
 98
1
 10
0.0
 20
0.0
  0
LINE
  5
2F3
100
AcDbEntity
  8
0
100
AcDbLine
 62
7
  6
CONTINUOUS
 10
13.0089031732
 20
5.2635199602
 11
13.5089031732
 21
5.2635199602
  0
LINE
  5
2F4
100
AcDbEntity
  8
0
100
AcDbLine
 62
7
  6
CONTINUOUS
 10
13.5089031732
 20
5.2635199602
 11
13.5089031732
 21
4.3577607587
  0
SPLINE
  5
2F5
100
AcDbEntity
  8
0
100
AcDbSpline
 62
7
  6
CONTINUOUS
 70
0
 71
3
 72
9
 73
5
 74
3
 42
0.0000001
 43
0.0000001
 44
0.0000000001
 12
-0.4339901542
 22
0.0010907927
 32
0.0
 13
-0.5660098458
 23
0.1372882891
 33
0.0
 40
0.0
 40
0.0
 40
0.0
 40
0.0
 40
0.5
 40
1.0
 40
1.0
 40
1.0
 40
1.0
 10
13.5089031732
 20
4.3577607587
 30
0.0
 10
13.4365714808
 20
4.3579425575
 30
0.0
 10
13.2809064551
 20
4.3696559465
 30
0.0
 10
13.1032381475
 20
4.4040689181
 30
0.0
 10
13.0089031732
 20
4.4269502996
 30
0.0
 11
13.5089031732
 21
4.3577607587
 31
0.0
 11
13.2754056346
 21
4.3753308421
 31
0.0
 11
13.0089031732
 21
4.4269502996
 31
0.0
  0
LINE
  5
2F6
100
AcDbEntity
  8
0
100
AcDbLine
 62
7
  6
CONTINUOUS
 10
13.0089031732
 20
4.4269502996
 11
13.0089031732
 21
5.2635199602
  0
LINE
  5
2F7
100
AcDbEntity
  8
0
100
AcDbLine
 62
7
  6
CONTINUOUS
 10
13.5089031732
 20
6.5135199602
 11
13.0089031732
 21
6.5135199602
  0
LINE
  5
2F8
100
AcDbEntity
  8
0
100
AcDbLine
 62
7
  6
CONTINUOUS
 10
13.0089031732
 20
6.5135199602
 11
13.0089031732
 21
7.1625199602
  0
LINE
  5
2F9
100
AcDbEntity
  8
0
100
AcDbLine
 62
7
  6
CONTINUOUS
 10
13.0089031732
 20
7.1625199602
 11
13.5089031732
 21
7.1625199602
  0
LINE
  5
2FA
100
AcDbEntity
  8
0
100
AcDbLine
 62
7
  6
CONTINUOUS
 10
13.5089031732
 20
7.1625199602
 11
13.5089031732
 21
6.5135199602
  0
HATCH
  5
2FB
100
AcDbEntity
  8
0
100
AcDbHatch
 62
2
  6
CONTINUOUS
 10
0.0
 20
0.0
 30
0.0
210
0.0
220
0.0
230
1.0
  2
default__3
 70
0
 71
1
 91
2
 92
1
 93
4
 72
1
 10
13.0089031732
 20
5.2635199602
 11
13.5089031732
 21
5.2635199602
 72
1
 10
13.5089031732
 20
5.2635199602
 11
13.5089031732
 21
4.3577607587
 72
4
 94
3
 73
0
 74
0
 95
9
 96
5
 40
0.0
 40
0.0
 40
0.0
 40
0.0
 40
0.5
 40
1.0
 40
1.0
 40
1.0
 40
1.0
 10
13.5089031732
 20
4.3577607587
 10
13.4365714808
 20
4.3579425575
 10
13.2809064551
 20
4.3696559465
 10
13.1032381475
 20
4.4040689181
 10
13.0089031732
 20
4.4269502996
 72
1
 10
13.0089031732
 20
4.4269502996
 11
13.0089031732
 21
5.2635199602
 97
8
330
2F3
330
2F4
330
2F5
330
2F6
330
2F7
330
2F8
330
2F9
330
2FA
 92
1
 93
4
 72
1
 10
13.5089031732
 20
6.5135199602
 11
13.0089031732
 21
6.5135199602
 72
1
 10
13.0089031732
 20
6.5135199602
 11
13.0089031732
 21
7.1625199602
 72
1
 10
13.0089031732
 20
7.1625199602
 11
13.5089031732
 21
7.1625199602
 72
1
 10
13.5089031732
 20
7.1625199602
 11
13.5089031732
 21
6.5135199602
 97
8
330
2F3
330
2F4
330
2F5
330
2F6
330
2F7
330
2F8
330
2F9
330
2FA
 75
0
 76
0
 52
45.0
 41
0.0905744643
 77
0
 78
1
 53
45.0
 43
0.0
 44
0.0
 45
-0.0640458179
 46
0.0640458179
 79
0
 98
1
 10
0.0
 20
0.0
  0
ACAD_TABLE
  5
2FC
100
AcDbEntity
  8
0
 62
2
  6
CONTINUOUS
100
AcDbBlockReference
  2
*T1
 10
10.2497977969
 20
1.0002134313
 30
0.0
100
AcDbTable
342
       3CB
343
21D
 11
1.0
 21
0.0
 31
0.0
 90
6
 91
3
 92
3
 93
20
 94
0
 95
0
 96
0
 70
1
 41
0.028
141
0.25
141
0.5
141
1.25
142
1.5
142
2.0
142
2.25
171
1
172
0
173
0
174
0
175
1
176
1
177
33
178
0
145
0.0
  1
SCALE
170
1
140
0.125
171
1
172
0
173
0
174
0
175
1
176
1
177
1
178
0
145
0.0
170
1
171
1
172
0
173
0
174
0
175
1
176
1
177
33
178
0
145
0.0
  1
SHEET 1 OF 1
170
1
140
0.125
171
1
172
0
173
0
174
0
175
2
176
2
177
33
178
0
145
0.0
  1
BEARING BRACKET ASSY
170
5
140
0.16
171
1
172
0
173
1
174
0
175
1
176
1
177
1
178
0
145
0.0
170
5
171
1
172
0
173
0
174
0
175
1
176
1
177
33
178
0
145
0.0
  1
BEARING_BRACKET_ASSY
170
5
140
0.12
171
1
172
0
173
1
174
0
175
1
176
1
177
1
178
0
145
0.0
170
1
171
1
172
0
173
1
174
0
175
1
176
1
177
1
178
0
145
0.0
170
1
171
1
172
0
173
0
174
0
175
1
176
1
177
1
178
0
145
0.0
170
1
  0
ACAD_TABLE
  5
2FD
100
AcDbEntity
  8
0
 62
2
  6
CONTINUOUS
100
AcDbBlockReference
  2
*T2
 10
8.500020718
 20
1.0000828015
 30
0.0
100
AcDbTable
342
       3CB
343
21E
 11
1.0
 21
0.0
 31
0.0
 90
6
 91
6
 92
3
 93
4
 94
0
 95
0
 96
0
 70
1
141
0.333
141
0.333
141
0.333
141
0.333
141
0.333
141
0.333
142
0.625
142
0.375
142
0.75
171
1
172
0
173
0
174
0
175
1
176
1
177
33
178
0
145
0.0
  1
CHIEF\PENGR.
170
4
140
0.08
171
1
172
0
173
0
174
0
175
2
176
1
177
1
178
0
145
0.0
170
1
171
1
172
0
173
1
174
0
175
1
176
1
177
1
178
0
145
0.0
170
1
171
1
172
0
173
0
174
0
175
1
176
1
177
33
178
0
145
0.0
  1
PROJ.\PENGR.
170
4
140
0.08
171
1
172
0
173
0
174
0
175
2
176
1
177
1
178
0
145
0.0
170
1
171
1
172
0
173
1
174
0
175
1
176
1
177
1
178
0
145
0.0
170
1
171
1
172
0
173
0
174
0
175
1
176
1
177
33
178
0
145
0.0
  1
ELEC.\PENGR.
170
4
140
0.08
171
1
172
0
173
0
174
0
175
2
176
1
177
1
178
0
145
0.0
170
1
171
1
172
0
173
1
174
0
175
1
176
1
177
1
178
0
145
0.0
170
1
171
1
172
0
173
0
174
0
175
1
176
1
177
33
178
0
145
0.0
  1
MECH.\PENGR.
170
4
140
0.08
171
1
172
0
173
0
174
0
175
2
176
1
177
1
178
0
145
0.0
170
1
171
1
172
0
173
1
174
0
175
1
176
1
177
1
178
0
145
0.0
170
1
171
1
172
0
173
0
174
0
175
1
176
1
177
33
178
0
145
0.0
  1
CHECKER
170
4
140
0.08
171
1
172
0
173
0
174
0
175
2
176
1
177
1
178
0
145
0.0
170
1
171
1
172
0
173
1
174
0
175
1
176
1
177
1
178
0
145
0.0
170
1
171
1
172
0
173
0
174
0
175
1
176
1
177
33
178
0
145
0.0
  1
DRAWN
170
4
140
0.08
171
1
172
0
173
0
174
0
175
1
176
1
177
33
178
0
145
0.0
  1
BJD
170
5
140
0.1
171
1
172
0
173
0
174
0
175
1
176
1
177
33
178
0
145
0.0
  1
2/20/10
170
5
140
0.1
  0
ACAD_TABLE
  5
2FE
100
AcDbEntity
  8
0
 62
2
  6
CONTINUOUS
100
AcDbBlockReference
  2
*T3
 10
6.124871431
 20
1.0000074233
 30
0.0
100
AcDbTable
342
       3CB
343
21F
 11
1.0
 21
0.0
 31
0.0
 90
6
 91
4
 92
2
 93
20
 94
0
 95
0
 96
0
 70
1
 41
0.028
141
0.5625
141
0.5625
141
0.625
141
0.25
142
1.5625
142
0.8125
171
1
172
0
173
0
174
0
175
2
176
1
177
33
178
0
145
0.0
  1
FINISH:\PSPEC:
170
4
140
0.1
171
1
172
0
173
1
174
0
175
1
176
1
177
1
178
0
145
0.0
170
4
171
1
172
0
173
0
174
0
175
2
176
1
177
33
178
0
145
0.0
  1
MATERIAL:\PSPEC:
170
4
140
0.1
171
1
172
0
173
1
174
0
175
1
176
1
177
1
178
0
145
0.0
170
4
171
1
172
0
173
0
174
0
175
1
176
1
177
33
178
0
145
0.0
  1
FRACTIONAL   \Fgdt;{\Fgdt;`} 1/32\PDECIMAL .XXX \Fgdt;{\Fgdt;`} .010\P.XX \Fgdt;{\Fgdt;`} .020\PANGULAR      \Fgdt;{\Fgdt;`} 1/2\Fgdt;{\Fgdt;~}
170
6
140
0.09
171
1
172
0
173
0
174
0
175
1
176
1
177
33
178
0
145
0.0
  1
DO NOT\PSCALE
170
5
140
0.125
171
1
172
0
173
0
174
0
175
2
176
1
177
33
178
0
145
0.0
  1
UNLESS OTHERWISE SPECIFIED:
170
1
140
0.1
171
1
172
0
173
1
174
0
175
1
176
1
177
1
178
0
145
0.0
170
1
  0
ACAD_TABLE
  5
2FF
100
AcDbEntity
  8
0
 62
2
  6
CONTINUOUS
100
AcDbBlockReference
  2
*T4
 10
9.6247963031
 20
9.9997087099
 30
0.0
100
AcDbTable
342
       3CA
343
220
 11
1.0
 21
0.0
 31
0.0
 90
22
 91
4
 92
7
 93
16
 94
0
 95
0
 96
0
 41
0.006125
141
0.2421875
141
0.1953125
141
0.1953125
141
0.1953125
142
0.5
142
2.875
142
0.375
142
0.75
142
0.625
142
0.625
142
0.625
171
1
172
0
173
0
174
0
175
4
176
1
177
33
178
0
145
0.0
  1
REVISIONS
170
5
140
0.125
171
1
172
0
173
1
174
0
175
1
176
1
177
1
178
0
145
0.0
170
1
171
1
172
0
173
1
174
0
175
1
176
1
177
1
178
0
145
0.0
170
1
171
1
172
0
173
1
174
0
175
1
176
1
177
1
178
0
145
0.0
170
1
171
1
172
0
173
0
174
0
175
3
176
1
177
33
178
0
145
0.0
  1
APPROVALS
170
5
140
0.125
171
1
172
0
173
1
174
0
175
1
176
1
177
1
178
0
145
0.0
170
1
171
1
172
0
173
1
174
0
175
1
176
1
177
1
178
0
145
0.0
170
1
171
1
172
0
173
0
174
0
175
1
176
1
177
33
178
0
145
0.0
  1
SYM
170
5
140
0.1
171
1
172
0
173
0
174
0
175
1
176
1
177
33
178
0
145
0.0
  1
DESCRIPTION
170
5
140
0.1
171
1
172
0
173
0
174
0
175
1
176
1
177
33
178
0
145
0.0
  1
BY
170
5
140
0.1
171
1
172
0
173
0
174
0
175
1
176
1
177
33
178
0
145
0.0
  1
DATE
170
5
140
0.1
171
1
172
0
173
0
174
0
175
1
176
1
177
33
178
0
145
0.0
  1
ENGRG
170
5
140
0.1
171
1
172
0
173
0
174
0
175
1
176
1
177
33
178
0
145
0.0
  1
PROD
170
5
140
0.1
171
1
172
0
173
0
174
0
175
1
176
1
177
33
178
0
145
0.0
  1
Q.A.
170
5
140
0.1
171
1
172
0
173
0
174
0
175
1
176
1
177
33
178
0
145
0.0
  1
1
170
5
140
0.1
171
1
172
0
173
0
174
0
175
1
176
1
177
33
178
0
145
0.0
  1
ORIGINAL        
170
4
140
0.1
171
1
172
0
173
0
174
0
175
1
176
1
177
33
178
0
145
0.0
  1
BJD
170
5
140
0.1
171
1
172
0
173
0
174
0
175
1
176
1
177
33
178
0
145
0.0
  1
2/20/10
170
5
140
0.1
171
1
172
0
173
0
174
0
175
1
176
1
177
1
178
0
145
0.0
170
1
171
1
172
0
173
0
174
0
175
1
176
1
177
1
178
0
145
0.0
170
1
171
1
172
0
173
0
174
0
175
1
176
1
177
1
178
0
145
0.0
170
1
171
1
172
0
173
0
174
0
175
1
176
1
177
1
178
0
145
0.0
170
1
171
1
172
0
173
0
174
0
175
1
176
1
177
1
178
0
145
0.0
170
1
171
1
172
0
173
0
174
0
175
1
176
1
177
1
178
0
145
0.0
170
1
171
1
172
0
173
0
174
0
175
1
176
1
177
1
178
0
145
0.0
170
1
171
1
172
0
173
0
174
0
175
1
176
1
177
1
178
0
145
0.0
170
1
171
1
172
0
173
0
174
0
175
1
176
1
177
1
178
0
145
0.0
170
1
171
1
172
0
173
0
174
0
175
1
176
1
177
1
178
0
145
0.0
170
1
  0
ACAD_TABLE
  5
300
100
AcDbEntity
  8
0
 62
2
  6
CONTINUOUS
100
AcDbBlockReference
  2
*T5
 10
1.002191794
 20
9.995005299
 30
0.0
100
AcDbTable
342
       3CA
343
221
 11
1.0
 21
0.0
 31
0.0
 90
22
 91
8
 92
5
 93
16
 94
0
 95
0
 96
0
 41
0.04
141
0.38
141
0.28
141
0.28
141
0.28
141
0.28
141
0.28
141
0.28
141
0.28
142
0.625
142
0.625
142
2.125
142
0.625
142
3.375
171
1
172
0
173
0
174
0
175
1
176
1
177
33
178
0
145
0.0
  1
ITEM
170
5
140
0.15625
171
1
172
0
173
0
174
0
175
1
176
1
177
33
178
0
145
0.0
  1
SYM
170
5
140
0.15625
171
1
172
0
173
0
174
0
175
1
176
1
177
33
178
0
145
0.0
  1
PART NUMBER
170
5
140
0.15625
171
1
172
0
173
0
174
0
175
1
176
1
177
33
178
0
145
0.0
  1
QTY
170
5
140
0.15625
171
1
172
0
173
0
174
0
175
1
176
1
177
33
178
0
145
0.0
  1
DESCRIPTION
170
5
140
0.15625
171
1
172
0
173
0
174
0
175
1
176
1
177
33
178
0
145
0.0
  1
1
170
5
140
0.125
171
1
172
0
173
0
174
0
175
1
176
1
177
1
178
0
145
0.0
170
1
171
1
172
0
173
0
174
0
175
1
176
1
177
33
178
0
145
0.0
  1
BEARING_25
170
5
140
0.125
171
1
172
0
173
0
174
0
175
1
176
1
177
33
178
0
145
0.0
  1
1
170
5
140
0.125
171
1
172
0
173
0
174
0
175
1
176
1
177
33
178
0
145
0.0
  1
BEARING .25 .625 .190
170
4
140
0.125
171
1
172
0
173
0
174
0
175
1
176
1
177
33
178
0
145
0.0
  1
2
170
5
140
0.125
171
1
172
0
173
0
174
0
175
1
176
1
177
1
178
0
145
0.0
170
1
171
1
172
0
173
0
174
0
175
1
176
1
177
33
178
0
145
0.0
  1
BEARING_BRACKET
170
5
140
0.125
171
1
172
0
173
0
174
0
175
1
176
1
177
33
178
0
145
0.0
  1
1
170
5
140
0.125
171
1
172
0
173
0
174
0
175
1
176
1
177
33
178
0
145
0.0
  1
BEARING_BRACKET
170
4
140
0.125
171
1
172
0
173
0
174
0
175
1
176
1
177
33
178
0
145
0.0
  1
3
170
5
140
0.125
171
1
172
0
173
0
174
0
175
1
176
1
177
1
178
0
145
0.0
170
1
171
1
172
0
173
0
174
0
175
1
176
1
177
33
178
0
145
0.0
  1
FLW4SS
170
5
140
0.125
171
1
172
0
173
0
174
0
175
1
176
1
177
33
178
0
145
0.0
  1
8
170
5
140
0.125
171
1
172
0
173
0
174
0
175
1
176
1
177
33
178
0
145
0.0
  1
FLATWASHER #4
170
4
140
0.125
171
1
172
0
173
0
174
0
175
1
176
1
177
33
178
0
145
0.0
  1
4
170
5
140
0.125
171
1
172
0
173
0
174
0
175
1
176
1
177
1
178
0
145
0.0
170
1
171
1
172
0
173
0
174
0
175
1
176
1
177
33
178
0
145
0.0
  1
HN0440SS
170
5
140
0.125
171
1
172
0
173
0
174
0
175
1
176
1
177
33
178
0
145
0.0
  1
4
170
5
140
0.125
171
1
172
0
173
0
174
0
175
1
176
1
177
33
178
0
145
0.0
  1
HEX NUT #4-40
170
4
140
0.125
171
1
172
0
173
0
174
0
175
1
176
1
177
33
178
0
145
0.0
  1
5
170
5
140
0.125
171
1
172
0
173
0
174
0
175
1
176
1
177
1
178
0
145
0.0
170
1
171
1
172
0
173
0
174
0
175
1
176
1
177
33
178
0
145
0.0
  1
O-RING
170
5
140
0.125
171
1
172
0
173
0
174
0
175
1
176
1
177
33
178
0
145
0.0
  1
1
170
5
140
0.125
171
1
172
0
173
0
174
0
175
1
176
1
177
33
178
0
145
0.0
  1
O-RING .625 O.D 1/16 WIDE
170
4
140
0.125
171
1
172
0
173
0
174
0
175
1
176
1
177
33
178
0
145
0.0
  1
6
170
5
140
0.125
171
1
172
0
173
0
174
0
175
1
176
1
177
1
178
0
145
0.0
170
1
171
1
172
0
173
0
174
0
175
1
176
1
177
33
178
0
145
0.0
  1
SHMS044006S
170
5
140
0.125
171
1
172
0
173
0
174
0
175
1
176
1
177
33
178
0
145
0.0
  1
4
170
5
140
0.125
171
1
172
0
173
0
174
0
175
1
176
1
177
33
178
0
145
0.0
  1
SOCKET HEAD #4-40x3/8
170
4
140
0.125
171
1
172
0
173
0
174
0
175
1
176
1
177
33
178
0
145
0.0
  1
7
170
5
140
0.125
171
1
172
0
173
0
174
0
175
1
176
1
177
1
178
0
145
0.0
170
1
171
1
172
0
173
0
174
0
175
1
176
1
177
33
178
0
145
0.0
  1
SLW04
170
5
140
0.125
171
1
172
0
173
0
174
0
175
1
176
1
177
33
178
0
145
0.0
  1
4
170
5
140
0.125
171
1
172
0
173
0
174
0
175
1
176
1
177
33
178
0
145
0.0
  1
LOCK WASHER #4
170
4
140
0.125
  0
MTEXT
  5
301
100
AcDbEntity
  8
BALLOONS
100
AcDbMText
 62
2
  6
CONTINUOUS
  7
STANDARD
 71
3
 72
1
 10
20.9149720166
 20
4.0279598835
 30
0.0
 11
1.0
 21
0.0
 31
0.0
 44
0.9
  1
SECTION  A-A\PSCALE  2.000
 40
0.15625
 41
1.5521978022
  0
LEADER
  5
302
100
AcDbEntity
  8
BALLOONS
100
AcDbLeader
 62
2
  6
CONTINUOUS
  3
STANDARD
 71
1
 72
0
 73
2
 75
0
 76
2
 10
13.1706935216
 20
5.6385199602
 30
0.0
 10
12.1629205226
 20
6.9827952045
 30
0.0
340
303
1001
ACAD
1000
DSTYLE
1002
{
1070
77
1070
0
1002
}
  0
INSERT
  5
303
102
{ACAD_REACTORS
330
302
102
}
100
AcDbEntity
  8
BALLOONS
100
AcDbBlockReference
 62
2
  6
CONTINUOUS
  2
BOM BALLOON 0_BL0
 10
11.9989031732
 20
7.2015790602
  0
LEADER
  5
304
100
AcDbEntity
  8
BALLOONS
100
AcDbLeader
 62
2
  6
CONTINUOUS
  3
STANDARD
 71
1
 72
0
 73
2
 75
0
 76
2
 10
13.5089031732
 20
4.7429422757
 30
0.0
 10
14.7395136141
 20
3.986854596
 30
0.0
340
305
1001
ACAD
1000
DSTYLE
1002
{
1070
77
1070
0
1002
}
  0
INSERT
  5
305
102
{ACAD_REACTORS
330
304
102
}
100
AcDbEntity
  8
BALLOONS
100
AcDbBlockReference
 62
2
  6
CONTINUOUS
  2
BOM BALLOON 1_BL1
 10
14.9724912131
 20
3.8437130409
  0
LEADER
  5
306
100
AcDbEntity
  8
BALLOONS
100
AcDbLeader
 62
2
  6
CONTINUOUS
  3
STANDARD
 71
1
 72
0
 73
2
 75
0
 76
2
 10
13.5239031732
 20
5.9903978282
 30
0.0
 10
14.6257677055
 20
6.0396252653
 30
0.0
340
307
1001
ACAD
1000
DSTYLE
1002
{
1070
77
1070
0
1002
}
  0
INSERT
  5
307
102
{ACAD_REACTORS
330
306
102
}
100
AcDbEntity
  8
BALLOONS
100
AcDbBlockReference
 62
2
  6
CONTINUOUS
  2
BOM BALLOON 5_BL2
 10
14.8989327243
 20
6.0518293189
  0
LEADER
  5
308
100
AcDbEntity
  8
BALLOONS
100
AcDbLeader
 62
2
  6
CONTINUOUS
  3
STANDARD
 71
1
 72
0
 73
2
 75
0
 76
2
 10
12.7989031732
 20
5.3368261659
 30
0.0
 10
11.5955515826
 20
4.6142969465
 30
0.0
340
309
1001
ACAD
1000
DSTYLE
1002
{
1070
77
1070
0
1002
}
  0
INSERT
  5
309
102
{ACAD_REACTORS
330
308
102
}
100
AcDbEntity
  8
BALLOONS
100
AcDbBlockReference
 62
2
  6
CONTINUOUS
  2
BOM BALLOON 6_BL3
 10
11.3611254153
 20
4.4735402824
  0
INSERT
  5
30A
100
AcDbEntity
  8
BALLOONS
100
AcDbBlockReference
 62
2
  6
CONTINUOUS
  2
BOM BALLOON 2_BL4
 10
10.8142504153
 20
4.4735402824
  0
INSERT
  5
30B
100
AcDbEntity
  8
BALLOONS
100
AcDbBlockReference
 62
2
  6
CONTINUOUS
  2
BOM BALLOON 3_BL5
 10
10.2673754153
 20
4.4735402824
  0
INSERT
  5
30C
100
AcDbEntity
  8
BALLOONS
100
AcDbBlockReference
 62
2
  6
CONTINUOUS
  2
BOM BALLOON 4_BL6
 10
9.7205004153
 20
4.4735402824
  0
LINE
  5
30D
100
AcDbEntity
  8
0
100
AcDbLine
 62
7
  6
CONTINUOUS
 10
0.0
 20
0.0
 11
0.0
 21
11.0
  0
LINE
  5
30E
100
AcDbEntity
  8
0
100
AcDbLine
 62
7
  6
CONTINUOUS
 10
1.0
 20
1.0
 11
1.0
 21
10.0
  0
LINE
  5
30F
100
AcDbEntity
  8
0
100
AcDbLine
 62
7
  6
CONTINUOUS
 10
0.0
 20
0.0
 11
17.0
 21
0.0
  0
LINE
  5
310
100
AcDbEntity
  8
0
100
AcDbLine
 62
7
  6
CONTINUOUS
 10
1.0
 20
1.0
 11
16.0
 21
1.0
  0
LINE
  5
311
100
AcDbEntity
  8
0
100
AcDbLine
 62
7
  6
CONTINUOUS
 10
1.0
 20
10.0
 11
16.0
 21
10.0
  0
LINE
  5
312
100
AcDbEntity
  8
0
100
AcDbLine
 62
7
  6
CONTINUOUS
 10
0.0
 20
11.0
 11
17.0
 21
11.0
  0
LINE
  5
313
100
AcDbEntity
  8
0
100
AcDbLine
 62
7
  6
CONTINUOUS
 10
16.0
 20
1.0
 11
16.0
 21
10.0
  0
LINE
  5
314
100
AcDbEntity
  8
0
100
AcDbLine
 62
7
  6
CONTINUOUS
 10
17.0
 20
0.0
 11
17.0
 21
11.0
  0
LINE
  5
315
100
AcDbEntity
  8
0
100
AcDbLine
 62
7
  6
CONTINUOUS
 10
3.7814511524
 20
6.5818300976
 11
3.7814511524
 21
5.7068300976
  0
LINE
  5
316
100
AcDbEntity
  8
0
100
AcDbLine
 62
7
  6
CONTINUOUS
 10
4.9064511524
 20
4.5818300976
 11
5.7814511524
 21
4.5818300976
  0
LINE
  5
317
100
AcDbEntity
  8
0
100
AcDbLine
 62
7
  6
CONTINUOUS
 10
4.6564511524
 20
4.8318300976
 11
4.6564511524
 21
5.2068300976
  0
LINE
  5
318
100
AcDbEntity
  8
0
100
AcDbLine
 62
7
  6
CONTINUOUS
 10
5.0939511524
 20
6.5167916218
 11
5.0639511524
 21
6.4648300976
  0
LINE
  5
319
100
AcDbEntity
  8
0
100
AcDbLine
 62
7
  6
CONTINUOUS
 10
4.0314511524
 20
5.4568300976
 11
4.4064511524
 21
5.4568300976
  0
LINE
  5
31A
100
AcDbEntity
  8
0
100
AcDbLine
 62
7
  6
CONTINUOUS
 10
5.1539511524
 20
6.4128685734
 11
5.1839511524
 21
6.4648300976
  0
LINE
  5
31B
100
AcDbEntity
  8
0
100
AcDbLine
 62
7
  6
CONTINUOUS
 10
5.0939511524
 20
5.9767916218
 11
5.0639511524
 21
5.9248300976
  0
LINE
  5
31C
100
AcDbEntity
  8
0
100
AcDbLine
 62
7
  6
CONTINUOUS
 10
5.1539511524
 20
5.8728685734
 11
5.1839511524
 21
5.9248300976
  0
LINE
  5
31D
100
AcDbEntity
  8
0
100
AcDbLine
 62
7
  6
CONTINUOUS
 10
5.6339511524
 20
6.5167916218
 11
5.6039511524
 21
6.4648300976
  0
LINE
  5
31E
100
AcDbEntity
  8
0
100
AcDbLine
 62
7
  6
CONTINUOUS
 10
5.0939511524
 20
5.8728685734
 11
5.1539511524
 21
5.8728685734
  0
LINE
  5
31F
100
AcDbEntity
  8
0
100
AcDbLine
 62
7
  6
CONTINUOUS
 10
5.6339511524
 20
5.8728685734
 11
5.6939511524
 21
5.8728685734
  0
LINE
  5
320
100
AcDbEntity
  8
0
100
AcDbLine
 62
7
  6
CONTINUOUS
 10
5.6939511524
 20
6.4128685734
 11
5.7239511524
 21
6.4648300976
  0
LINE
  5
321
100
AcDbEntity
  8
0
100
AcDbLine
 62
7
  6
CONTINUOUS
 10
5.6939511524
 20
5.9767916218
 11
5.6339511524
 21
5.9767916218
  0
LINE
  5
322
100
AcDbEntity
  8
0
100
AcDbLine
 62
7
  6
CONTINUOUS
 10
5.1539511524
 20
5.9767916218
 11
5.0939511524
 21
5.9767916218
  0
LINE
  5
323
100
AcDbEntity
  8
0
100
AcDbLine
 62
7
  6
CONTINUOUS
 10
5.0639511524
 20
5.9248300976
 11
5.0939511524
 21
5.8728685734
  0
LINE
  5
324
100
AcDbEntity
  8
0
100
AcDbLine
 62
7
  6
CONTINUOUS
 10
5.1839511524
 20
5.9248300976
 11
5.1539511524
 21
5.9767916218
  0
LINE
  5
325
100
AcDbEntity
  8
0
100
AcDbLine
 62
7
  6
CONTINUOUS
 10
5.6339511524
 20
5.9767916218
 11
5.6039511524
 21
5.9248300976
  0
LINE
  5
326
100
AcDbEntity
  8
0
100
AcDbLine
 62
7
  6
CONTINUOUS
 10
5.0639511524
 20
6.4648300976
 11
5.0939511524
 21
6.4128685734
  0
LINE
  5
327
100
AcDbEntity
  8
0
100
AcDbLine
 62
7
  6
CONTINUOUS
 10
5.6939511524
 20
5.8728685734
 11
5.7239511524
 21
5.9248300976
  0
LINE
  5
328
100
AcDbEntity
  8
0
100
AcDbLine
 62
7
  6
CONTINUOUS
 10
5.1839511524
 20
6.4648300976
 11
5.1539511524
 21
6.5167916218
  0
LINE
  5
329
100
AcDbEntity
  8
0
100
AcDbLine
 62
7
  6
CONTINUOUS
 10
5.0939511524
 20
6.4128685734
 11
5.1539511524
 21
6.4128685734
  0
LINE
  5
32A
100
AcDbEntity
  8
0
100
AcDbLine
 62
7
  6
CONTINUOUS
 10
5.6339511524
 20
6.4128685734
 11
5.6939511524
 21
6.4128685734
  0
LINE
  5
32B
100
AcDbEntity
  8
0
100
AcDbLine
 62
7
  6
CONTINUOUS
 10
5.6039511524
 20
5.9248300976
 11
5.6339511524
 21
5.8728685734
  0
LINE
  5
32C
100
AcDbEntity
  8
0
100
AcDbLine
 62
7
  6
CONTINUOUS
 10
5.6939511524
 20
6.5167916218
 11
5.6339511524
 21
6.5167916218
  0
LINE
  5
32D
100
AcDbEntity
  8
0
100
AcDbLine
 62
7
  6
CONTINUOUS
 10
5.1539511524
 20
6.5167916218
 11
5.0939511524
 21
6.5167916218
  0
LINE
  5
32E
100
AcDbEntity
  8
0
100
AcDbLine
 62
7
  6
CONTINUOUS
 10
5.7239511524
 20
5.9248300976
 11
5.6939511524
 21
5.9767916218
  0
LINE
  5
32F
100
AcDbEntity
  8
0
100
AcDbLine
 62
7
  6
CONTINUOUS
 10
5.6039511524
 20
6.4648300976
 11
5.6339511524
 21
6.4128685734
  0
LINE
  5
330
100
AcDbEntity
  8
0
100
AcDbLine
 62
7
  6
CONTINUOUS
 10
6.0314511524
 20
4.8318300976
 11
6.0314511524
 21
6.5818300976
  0
LINE
  5
331
100
AcDbEntity
  8
0
100
AcDbLine
 62
7
  6
CONTINUOUS
 10
5.7814511524
 20
6.8318300976
 11
4.0314511524
 21
6.8318300976
  0
LINE
  5
332
100
AcDbEntity
  8
0
100
AcDbLine
 62
7
  6
CONTINUOUS
 10
5.7239511524
 20
6.4648300976
 11
5.6939511524
 21
6.5167916218
  0
LINE
  5
333
100
AcDbEntity
  8
0
100
AcDbLine
 62
7
  6
CONTINUOUS
 10
7.71734375
 20
4.5818300976
 11
7.96734375
 21
4.5818300976
  0
LINE
  5
334
100
AcDbEntity
  8
02___PRT_ALL_AXES
100
AcDbLine
 62
7
  6
CONTINUOUS
 10
7.61234375
 20
5.8248300976
 11
7.61234375
 21
6.0248300976
  0
LINE
  5
335
100
AcDbEntity
  8
02___PRT_ALL_AXES
100
AcDbLine
 62
7
  6
CONTINUOUS
 10
7.61234375
 20
6.3648300976
 11
7.61234375
 21
6.5648300976
  0
LINE
  5
336
100
AcDbEntity
  8
0
100
AcDbLine
 62
7
  6
CONTINUOUS
 10
7.69234375
 20
6.5898300976
 11
7.69234375
 21
6.3398300976
  0
LINE
  5
337
100
AcDbEntity
  8
0
100
AcDbLine
 62
7
  6
CONTINUOUS
 10
7.69234375
 20
6.0498300976
 11
7.69234375
 21
5.7998300976
  0
LINE
  5
338
100
AcDbEntity
  8
0
100
AcDbLine
 62
7
  6
CONTINUOUS
 10
7.71734375
 20
4.5818300976
 11
7.71734375
 21
6.8318300976
  0
LINE
  5
339
100
AcDbEntity
  8
0
100
AcDbLine
 62
7
  6
CONTINUOUS
 10
7.96734375
 20
4.5818300976
 11
7.96734375
 21
6.8318300976
  0
LINE
  5
33A
100
AcDbEntity
  8
0
100
AcDbLine
 62
7
  6
CONTINUOUS
 10
7.97484375
 20
5.7998300976
 11
7.97484375
 21
6.5898300976
  0
LINE
  5
33B
100
AcDbEntity
  8
0
100
AcDbLine
 62
7
  6
CONTINUOUS
 10
8.03084375
 20
5.7804925303
 11
8.10084375
 21
5.7804925303
  0
LINE
  5
33C
100
AcDbEntity
  8
0
100
AcDbLine
 62
7
  6
CONTINUOUS
 10
7.99984375
 20
5.7998300976
 11
7.99984375
 21
6.0498300976
  0
LINE
  5
33D
100
AcDbEntity
  8
0
100
AcDbLine
 62
7
  6
CONTINUOUS
 10
7.99984375
 20
6.3398300976
 11
7.99984375
 21
6.5898300976
  0
LINE
  5
33E
100
AcDbEntity
  8
0
100
AcDbLine
 62
7
  6
CONTINUOUS
 10
8.03084375
 20
6.6091676649
 11
8.03084375
 21
6.3204925303
  0
LINE
  5
33F
100
AcDbEntity
  8
0
100
AcDbLine
 62
7
  6
CONTINUOUS
 10
8.03084375
 20
6.0691676649
 11
8.03084375
 21
5.7804925303
  0
LINE
  5
340
100
AcDbEntity
  8
0
100
AcDbLine
 62
7
  6
CONTINUOUS
 10
7.99984375
 20
5.7998300976
 11
7.97484375
 21
5.7998300976
  0
LINE
  5
341
100
AcDbEntity
  8
0
100
AcDbLine
 62
7
  6
CONTINUOUS
 10
7.69234375
 20
5.7998300976
 11
7.71734375
 21
5.7998300976
  0
LINE
  5
342
100
AcDbEntity
  8
0
100
AcDbLine
 62
7
  6
CONTINUOUS
 10
7.99984375
 20
5.8188300976
 11
8.03084375
 21
5.8188300976
  0
LINE
  5
343
100
AcDbEntity
  8
02___PRT_ALL_AXES
100
AcDbLine
 62
7
  6
CONTINUOUS
 10
7.61234375
 20
5.8248300976
 11
7.69234375
 21
5.8248300976
  0
LINE
  5
344
100
AcDbEntity
  8
0
100
AcDbLine
 62
7
  6
CONTINUOUS
 10
8.03084375
 20
5.8526613139
 11
8.10084375
 21
5.8526613139
  0
LINE
  5
345
100
AcDbEntity
  8
02___PRT_ALL_AXES
100
AcDbLine
 62
7
  6
CONTINUOUS
 10
7.96734375
 20
5.8693300976
 11
7.97484375
 21
5.8693300976
  0
LINE
  5
346
100
AcDbEntity
  8
02___PRT_ALL_AXES
100
AcDbLine
 62
7
  6
CONTINUOUS
 10
8.10084375
 20
5.8693300976
 11
8.19234375
 21
5.8693300976
  0
LINE
  5
347
100
AcDbEntity
  8
0
100
AcDbLine
 62
7
  6
CONTINUOUS
 10
8.10084375
 20
6.6091676649
 11
8.10084375
 21
6.3204925303
  0
LINE
  5
348
100
AcDbEntity
  8
0
100
AcDbLine
 62
7
  6
CONTINUOUS
 10
8.10084375
 20
6.0691676649
 11
8.10084375
 21
5.7804925303
  0
LINE
  5
349
100
AcDbEntity
  8
02___PRT_ALL_AXES
100
AcDbLine
 62
7
  6
CONTINUOUS
 10
8.19234375
 20
5.8693325913
 11
8.19234375
 21
5.9803276039
  0
LINE
  5
34A
100
AcDbEntity
  8
02___PRT_ALL_AXES
100
AcDbLine
 62
7
  6
CONTINUOUS
 10
8.19234375
 20
6.4093325913
 11
8.19234375
 21
6.5203276039
  0
LINE
  5
34B
100
AcDbEntity
  8
02___PRT_ALL_AXES
100
AcDbLine
 62
7
  6
CONTINUOUS
 10
7.96734375
 20
5.9803300976
 11
7.97484375
 21
5.9803300976
  0
LINE
  5
34C
100
AcDbEntity
  8
02___PRT_ALL_AXES
100
AcDbLine
 62
7
  6
CONTINUOUS
 10
8.10084375
 20
5.9803300976
 11
8.19234375
 21
5.9803300976
  0
LINE
  5
34D
100
AcDbEntity
  8
0
100
AcDbLine
 62
7
  6
CONTINUOUS
 10
8.03084375
 20
5.9969988812
 11
8.10084375
 21
5.9969988812
  0
LINE
  5
34E
100
AcDbEntity
  8
02___PRT_ALL_AXES
100
AcDbLine
 62
7
  6
CONTINUOUS
 10
7.61234375
 20
6.0248300976
 11
7.69234375
 21
6.0248300976
  0
LINE
  5
34F
100
AcDbEntity
  8
0
100
AcDbLine
 62
7
  6
CONTINUOUS
 10
7.99984375
 20
6.0308300976
 11
8.03084375
 21
6.0308300976
  0
LINE
  5
350
100
AcDbEntity
  8
0
100
AcDbLine
 62
7
  6
CONTINUOUS
 10
7.99984375
 20
6.0498300976
 11
7.97484375
 21
6.0498300976
  0
LINE
  5
351
100
AcDbEntity
  8
0
100
AcDbLine
 62
7
  6
CONTINUOUS
 10
7.69234375
 20
6.0498300976
 11
7.71734375
 21
6.0498300976
  0
LINE
  5
352
100
AcDbEntity
  8
0
100
AcDbLine
 62
7
  6
CONTINUOUS
 10
8.03084375
 20
6.0691676649
 11
8.10084375
 21
6.0691676649
  0
LINE
  5
353
100
AcDbEntity
  8
0
100
AcDbLine
 62
7
  6
CONTINUOUS
 10
8.03084375
 20
6.3204925303
 11
8.10084375
 21
6.3204925303
  0
LINE
  5
354
100
AcDbEntity
  8
0
100
AcDbLine
 62
7
  6
CONTINUOUS
 10
7.99984375
 20
6.3398300976
 11
7.97484375
 21
6.3398300976
  0
LINE
  5
355
100
AcDbEntity
  8
0
100
AcDbLine
 62
7
  6
CONTINUOUS
 10
7.69234375
 20
6.3398300976
 11
7.71734375
 21
6.3398300976
  0
LINE
  5
356
100
AcDbEntity
  8
0
100
AcDbLine
 62
7
  6
CONTINUOUS
 10
7.99984375
 20
6.3588300976
 11
8.03084375
 21
6.3588300976
  0
LINE
  5
357
100
AcDbEntity
  8
02___PRT_ALL_AXES
100
AcDbLine
 62
7
  6
CONTINUOUS
 10
7.61234375
 20
6.3648300976
 11
7.69234375
 21
6.3648300976
  0
LINE
  5
358
100
AcDbEntity
  8
0
100
AcDbLine
 62
7
  6
CONTINUOUS
 10
8.03084375
 20
6.3926613139
 11
8.10084375
 21
6.3926613139
  0
LINE
  5
359
100
AcDbEntity
  8
02___PRT_ALL_AXES
100
AcDbLine
 62
7
  6
CONTINUOUS
 10
7.96734375
 20
6.4093300976
 11
7.97484375
 21
6.4093300976
  0
LINE
  5
35A
100
AcDbEntity
  8
02___PRT_ALL_AXES
100
AcDbLine
 62
7
  6
CONTINUOUS
 10
8.10084375
 20
6.4093300976
 11
8.19234375
 21
6.4093300976
  0
LINE
  5
35B
100
AcDbEntity
  8
02___PRT_ALL_AXES
100
AcDbLine
 62
7
  6
CONTINUOUS
 10
7.96734375
 20
6.5203300976
 11
7.97484375
 21
6.5203300976
  0
LINE
  5
35C
100
AcDbEntity
  8
02___PRT_ALL_AXES
100
AcDbLine
 62
7
  6
CONTINUOUS
 10
8.10084375
 20
6.5203300976
 11
8.19234375
 21
6.5203300976
  0
LINE
  5
35D
100
AcDbEntity
  8
0
100
AcDbLine
 62
7
  6
CONTINUOUS
 10
8.03084375
 20
6.5369988812
 11
8.10084375
 21
6.5369988812
  0
LINE
  5
35E
100
AcDbEntity
  8
02___PRT_ALL_AXES
100
AcDbLine
 62
7
  6
CONTINUOUS
 10
7.61234375
 20
6.5648300976
 11
7.69234375
 21
6.5648300976
  0
LINE
  5
35F
100
AcDbEntity
  8
0
100
AcDbLine
 62
7
  6
CONTINUOUS
 10
7.99984375
 20
6.5708300976
 11
8.03084375
 21
6.5708300976
  0
LINE
  5
360
100
AcDbEntity
  8
0
100
AcDbLine
 62
7
  6
CONTINUOUS
 10
7.99984375
 20
6.5898300976
 11
7.97484375
 21
6.5898300976
  0
LINE
  5
361
100
AcDbEntity
  8
0
100
AcDbLine
 62
7
  6
CONTINUOUS
 10
7.69234375
 20
6.5898300976
 11
7.71734375
 21
6.5898300976
  0
LINE
  5
362
100
AcDbEntity
  8
0
100
AcDbLine
 62
7
  6
CONTINUOUS
 10
8.03084375
 20
6.6091676649
 11
8.10084375
 21
6.6091676649
  0
LINE
  5
363
100
AcDbEntity
  8
0
100
AcDbLine
 62
7
  6
CONTINUOUS
 10
7.71734375
 20
6.8318300976
 11
7.96734375
 21
6.8318300976
  0
LINE
  5
364
100
AcDbEntity
  8
0
100
AcDbLine
 62
7
  6
CONTINUOUS
 10
13.3731139728
 20
4.3643632492
 11
13.5089031732
 21
4.3671963339
  0
LINE
  5
365
100
AcDbEntity
  8
0
100
AcDbLine
 62
7
  6
CONTINUOUS
 10
13.0089031732
 20
4.4276822545
 11
13.3731139728
 21
4.3643632492
  0
LINE
  5
366
100
AcDbEntity
  8
0
100
AcDbLine
 62
7
  6
CONTINUOUS
 10
13.6359031732
 20
5.0598448256
 11
13.7759031732
 21
5.0598448256
  0
LINE
  5
367
100
AcDbEntity
  8
0
100
AcDbLine
 62
7
  6
CONTINUOUS
 10
13.5739031732
 20
5.0985199602
 11
13.5239031732
 21
5.0985199602
  0
LINE
  5
368
100
AcDbEntity
  8
0
100
AcDbLine
 62
7
  6
CONTINUOUS
 10
12.9589031732
 20
5.0985199602
 11
13.0089031732
 21
5.0985199602
  0
LINE
  5
369
100
AcDbEntity
  8
0
100
AcDbLine
 62
7
  6
CONTINUOUS
 10
13.5739031732
 20
5.1365199602
 11
13.6359031732
 21
5.1365199602
  0
LINE
  5
36A
100
AcDbEntity
  8
02___PRT_ALL_AXES
100
AcDbLine
 62
7
  6
CONTINUOUS
 10
12.7989031732
 20
5.1485199602
 11
12.9589031732
 21
5.1485199602
  0
LINE
  5
36B
100
AcDbEntity
  8
02___PRT_ALL_AXES
100
AcDbLine
 62
7
  6
CONTINUOUS
 10
12.7989031732
 20
5.1485199602
 11
12.7989031732
 21
5.5485199602
  0
LINE
  5
36C
100
AcDbEntity
  8
02___PRT_ALL_AXES
100
AcDbLine
 62
7
  6
CONTINUOUS
 10
12.7989031732
 20
6.2285199602
 11
12.7989031732
 21
6.6285199602
  0
LINE
  5
36D
100
AcDbEntity
  8
0
100
AcDbLine
 62
7
  6
CONTINUOUS
 10
13.6359031732
 20
5.2041823929
 11
13.7759031732
 21
5.2041823929
  0
LINE
  5
36E
100
AcDbEntity
  8
02___PRT_ALL_AXES
100
AcDbLine
 62
7
  6
CONTINUOUS
 10
13.5089031732
 20
5.2375199602
 11
13.5239031732
 21
5.2375199602
  0
LINE
  5
36F
100
AcDbEntity
  8
02___PRT_ALL_AXES
100
AcDbLine
 62
7
  6
CONTINUOUS
 10
13.7759031732
 20
5.2375199602
 11
13.9589031732
 21
5.2375199602
  0
LINE
  5
370
100
AcDbEntity
  8
0
100
AcDbLine
 62
7
  6
CONTINUOUS
 10
13.5089031732
 20
5.2635199602
 11
13.0089031732
 21
5.2635199602
  0
LINE
  5
371
100
AcDbEntity
  8
0
100
AcDbLine
 62
7
  6
CONTINUOUS
 10
12.9589031732
 20
6.6785199602
 11
12.9589031732
 21
6.1785199602
  0
LINE
  5
372
100
AcDbEntity
  8
0
100
AcDbLine
 62
7
  6
CONTINUOUS
 10
12.9589031732
 20
5.5985199602
 11
12.9589031732
 21
5.0985199602
  0
LINE
  5
373
100
AcDbEntity
  8
0
100
AcDbLine
 62
7
  6
CONTINUOUS
 10
13.0089031732
 20
4.4276822545
 11
13.0089031732
 21
5.2897900681
  0
LINE
  5
374
100
AcDbEntity
  8
0
100
AcDbLine
 62
7
  6
CONTINUOUS
 10
13.0089031732
 20
5.2938349208
 11
13.0089031732
 21
6.4832049996
  0
LINE
  5
375
100
AcDbEntity
  8
0
100
AcDbLine
 62
7
  6
CONTINUOUS
 10
13.0089031732
 20
6.4872498524
 11
13.0089031732
 21
7.1625199602
  0
LINE
  5
376
100
AcDbEntity
  8
0
100
AcDbLine
 62
7
  6
CONTINUOUS
 10
13.0339031732
 20
6.3985199602
 11
13.0339031732
 21
6.1985199602
  0
LINE
  5
377
100
AcDbEntity
  8
0
100
AcDbLine
 62
7
  6
CONTINUOUS
 10
13.0339031732
 20
5.5785199602
 11
13.0339031732
 21
5.3785199602
  0
LINE
  5
378
100
AcDbEntity
  8
0
100
AcDbLine
 62
7
  6
CONTINUOUS
 10
13.3989031732
 20
5.3785199602
 11
13.3739031732
 21
5.3785199602
  0
LINE
  5
379
100
AcDbEntity
  8
0
100
AcDbLine
 62
7
  6
CONTINUOUS
 10
13.0339031732
 20
5.3785199602
 11
13.0089031732
 21
5.3785199602
  0
LINE
  5
37A
100
AcDbEntity
  8
02___PRT_ALL_AXES
100
AcDbLine
 62
7
  6
CONTINUOUS
 10
13.7759031732
 20
5.4595199602
 11
13.9589031732
 21
5.4595199602
  0
LINE
  5
37B
100
AcDbEntity
  8
0
100
AcDbLine
 62
7
  6
CONTINUOUS
 10
13.6359031732
 20
5.4928575275
 11
13.7759031732
 21
5.4928575275
  0
LINE
  5
37C
100
AcDbEntity
  8
02___PRT_ALL_AXES
100
AcDbLine
 62
7
  6
CONTINUOUS
 10
12.7989031732
 20
5.5485199602
 11
12.9589031732
 21
5.5485199602
  0
LINE
  5
37D
100
AcDbEntity
  8
0
100
AcDbLine
 62
7
  6
CONTINUOUS
 10
13.5739031732
 20
5.5605199602
 11
13.6359031732
 21
5.5605199602
  0
LINE
  5
37E
100
AcDbEntity
  8
0
100
AcDbLine
 62
7
  6
CONTINUOUS
 10
13.3989031732
 20
5.5785199602
 11
13.3739031732
 21
5.5785199602
  0
LINE
  5
37F
100
AcDbEntity
  8
0
100
AcDbLine
 62
7
  6
CONTINUOUS
 10
13.0339031732
 20
5.5785199602
 11
13.0089031732
 21
5.5785199602
  0
LINE
  5
380
100
AcDbEntity
  8
0
100
AcDbLine
 62
7
  6
CONTINUOUS
 10
13.5739031732
 20
5.5985199602
 11
13.5239031732
 21
5.5985199602
  0
LINE
  5
381
100
AcDbEntity
  8
0
100
AcDbLine
 62
7
  6
CONTINUOUS
 10
12.9589031732
 20
5.5985199602
 11
13.0089031732
 21
5.5985199602
  0
LINE
  5
382
100
AcDbEntity
  8
0
100
AcDbLine
 62
7
  6
CONTINUOUS
 10
13.6359031732
 20
5.6371950948
 11
13.7759031732
 21
5.6371950948
  0
LINE
  5
383
100
AcDbEntity
  8
0
100
AcDbLine
 62
7
  6
CONTINUOUS
 10
13.3989031732
 20
5.6385199602
 11
13.0089031732
 21
5.6385199602
  0
LINE
  5
384
100
AcDbEntity
  8
0
100
AcDbLine
 62
7
  6
CONTINUOUS
 10
13.3739031732
 20
6.3985199602
 11
13.3739031732
 21
6.1985199602
  0
LINE
  5
385
100
AcDbEntity
  8
0
100
AcDbLine
 62
7
  6
CONTINUOUS
 10
13.3739031732
 20
5.5785199602
 11
13.3739031732
 21
5.3785199602
  0
LINE
  5
386
100
AcDbEntity
  8
0
100
AcDbLine
 62
7
  6
CONTINUOUS
 10
13.3989031732
 20
5.2938349208
 11
13.3989031732
 21
6.4832049996
  0
LINE
  5
387
100
AcDbEntity
  8
0
100
AcDbLine
 62
7
  6
CONTINUOUS
 10
13.5089031732
 20
4.3671963339
 11
13.5089031732
 21
5.2854683563
  0
LINE
  5
388
100
AcDbEntity
  8
0
100
AcDbLine
 62
7
  6
CONTINUOUS
 10
13.5089031732
 20
6.4915781458
 11
13.5089031732
 21
7.1625199602
  0
LINE
  5
389
100
AcDbEntity
  8
0
100
AcDbLine
 62
7
  6
CONTINUOUS
 10
13.5239031732
 20
5.0985199602
 11
13.5239031732
 21
5.3247203449
  0
LINE
  5
38A
100
AcDbEntity
  8
0
100
AcDbLine
 62
7
  6
CONTINUOUS
 10
13.5239031732
 20
5.3260199602
 11
13.5239031732
 21
6.4510199602
  0
LINE
  5
38B
100
AcDbEntity
  8
0
100
AcDbLine
 62
7
  6
CONTINUOUS
 10
13.5239031732
 20
6.4523195755
 11
13.5239031732
 21
6.6785199602
  0
LINE
  5
38C
100
AcDbEntity
  8
0
100
AcDbLine
 62
7
  6
CONTINUOUS
 10
13.5739031732
 20
5.0985199602
 11
13.5739031732
 21
5.5985199602
  0
LINE
  5
38D
100
AcDbEntity
  8
0
100
AcDbLine
 62
7
  6
CONTINUOUS
 10
13.5739031732
 20
6.1785199602
 11
13.5739031732
 21
6.6785199602
  0
LINE
  5
38E
100
AcDbEntity
  8
0
100
AcDbLine
 62
7
  6
CONTINUOUS
 10
13.6359031732
 20
6.7171950948
 11
13.6359031732
 21
6.1398448256
  0
LINE
  5
38F
100
AcDbEntity
  8
0
100
AcDbLine
 62
7
  6
CONTINUOUS
 10
13.6359031732
 20
5.6371950948
 11
13.6359031732
 21
5.0598448256
  0
LINE
  5
390
100
AcDbEntity
  8
0
100
AcDbLine
 62
7
  6
CONTINUOUS
 10
13.7759031732
 20
6.7171950948
 11
13.7759031732
 21
6.1398448256
  0
LINE
  5
391
100
AcDbEntity
  8
0
100
AcDbLine
 62
7
  6
CONTINUOUS
 10
13.7759031732
 20
5.6371950948
 11
13.7759031732
 21
5.0598448256
  0
LINE
  5
392
100
AcDbEntity
  8
0
100
AcDbLine
 62
7
  6
CONTINUOUS
 10
13.3989031732
 20
6.1385199602
 11
13.0089031732
 21
6.1385199602
  0
LINE
  5
393
100
AcDbEntity
  8
0
100
AcDbLine
 62
7
  6
CONTINUOUS
 10
13.6359031732
 20
6.1398448256
 11
13.7759031732
 21
6.1398448256
  0
LINE
  5
394
100
AcDbEntity
  8
0
100
AcDbLine
 62
7
  6
CONTINUOUS
 10
13.5739031732
 20
6.1785199602
 11
13.5239031732
 21
6.1785199602
  0
LINE
  5
395
100
AcDbEntity
  8
0
100
AcDbLine
 62
7
  6
CONTINUOUS
 10
12.9589031732
 20
6.1785199602
 11
13.0089031732
 21
6.1785199602
  0
LINE
  5
396
100
AcDbEntity
  8
0
100
AcDbLine
 62
7
  6
CONTINUOUS
 10
13.3989031732
 20
6.1985199602
 11
13.3739031732
 21
6.1985199602
  0
LINE
  5
397
100
AcDbEntity
  8
0
100
AcDbLine
 62
7
  6
CONTINUOUS
 10
13.0339031732
 20
6.1985199602
 11
13.0089031732
 21
6.1985199602
  0
LINE
  5
398
100
AcDbEntity
  8
0
100
AcDbLine
 62
7
  6
CONTINUOUS
 10
13.5739031732
 20
6.2165199602
 11
13.6359031732
 21
6.2165199602
  0
LINE
  5
399
100
AcDbEntity
  8
02___PRT_ALL_AXES
100
AcDbLine
 62
7
  6
CONTINUOUS
 10
12.7989031732
 20
6.2285199602
 11
12.9589031732
 21
6.2285199602
  0
LINE
  5
39A
100
AcDbEntity
  8
02___PRT_ALL_AXES
100
AcDbLine
 62
7
  6
CONTINUOUS
 10
13.9589031732
 20
5.2375249477
 11
13.9589031732
 21
5.4595149727
  0
LINE
  5
39B
100
AcDbEntity
  8
02___PRT_ALL_AXES
100
AcDbLine
 62
7
  6
CONTINUOUS
 10
13.9589031732
 20
6.3175249477
 11
13.9589031732
 21
6.5395149727
  0
LINE
  5
39C
100
AcDbEntity
  8
0
100
AcDbLine
 62
7
  6
CONTINUOUS
 10
13.6359031732
 20
6.2841823929
 11
13.7759031732
 21
6.2841823929
  0
LINE
  5
39D
100
AcDbEntity
  8
02___PRT_ALL_AXES
100
AcDbLine
 62
7
  6
CONTINUOUS
 10
13.7759031732
 20
6.3175199602
 11
13.9589031732
 21
6.3175199602
  0
LINE
  5
39E
100
AcDbEntity
  8
0
100
AcDbLine
 62
7
  6
CONTINUOUS
 10
13.3989031732
 20
6.3985199602
 11
13.3739031732
 21
6.3985199602
  0
LINE
  5
39F
100
AcDbEntity
  8
0
100
AcDbLine
 62
7
  6
CONTINUOUS
 10
13.0339031732
 20
6.3985199602
 11
13.0089031732
 21
6.3985199602
  0
LINE
  5
3A0
100
AcDbEntity
  8
0
100
AcDbLine
 62
7
  6
CONTINUOUS
 10
13.5089031732
 20
6.5135199602
 11
13.0089031732
 21
6.5135199602
  0
LINE
  5
3A1
100
AcDbEntity
  8
02___PRT_ALL_AXES
100
AcDbLine
 62
7
  6
CONTINUOUS
 10
13.5089031732
 20
6.5395199602
 11
13.5239031732
 21
6.5395199602
  0
LINE
  5
3A2
100
AcDbEntity
  8
02___PRT_ALL_AXES
100
AcDbLine
 62
7
  6
CONTINUOUS
 10
13.7759031732
 20
6.5395199602
 11
13.9589031732
 21
6.5395199602
  0
LINE
  5
3A3
100
AcDbEntity
  8
0
100
AcDbLine
 62
7
  6
CONTINUOUS
 10
13.6359031732
 20
6.5728575275
 11
13.7759031732
 21
6.5728575275
  0
LINE
  5
3A4
100
AcDbEntity
  8
02___PRT_ALL_AXES
100
AcDbLine
 62
7
  6
CONTINUOUS
 10
12.7989031732
 20
6.6285199602
 11
12.9589031732
 21
6.6285199602
  0
LINE
  5
3A5
100
AcDbEntity
  8
0
100
AcDbLine
 62
7
  6
CONTINUOUS
 10
13.5739031732
 20
6.6405199602
 11
13.6359031732
 21
6.6405199602
  0
LINE
  5
3A6
100
AcDbEntity
  8
0
100
AcDbLine
 62
7
  6
CONTINUOUS
 10
13.5739031732
 20
6.6785199602
 11
13.5239031732
 21
6.6785199602
  0
LINE
  5
3A7
100
AcDbEntity
  8
0
100
AcDbLine
 62
7
  6
CONTINUOUS
 10
12.9589031732
 20
6.6785199602
 11
13.0089031732
 21
6.6785199602
  0
LINE
  5
3A8
100
AcDbEntity
  8
0
100
AcDbLine
 62
7
  6
CONTINUOUS
 10
13.6359031732
 20
6.7171950948
 11
13.7759031732
 21
6.7171950948
  0
LINE
  5
3A9
100
AcDbEntity
  8
0
100
AcDbLine
 62
7
  6
CONTINUOUS
 10
13.5089031732
 20
7.1625199602
 11
13.0089031732
 21
7.1625199602
  0
ARC
  5
3AA
100
AcDbEntity
  8
02___PRT_ALL_AXES
100
AcDbCircle
 62
7
  6
CONTINUOUS
 10
5.3939511524
 20
6.1948300976
 40
0.3125
100
AcDbArc
 50
242.3055958749
 51
297.6944041251
  0
ARC
  5
3AB
100
AcDbEntity
  8
02___PRT_ALL_AXES
100
AcDbCircle
 62
7
  6
CONTINUOUS
 10
5.3939511524
 20
6.1948300976
 40
0.3125
100
AcDbArc
 50
332.3067412409
 51
27.6932587591
  0
ARC
  5
3AC
100
AcDbEntity
  8
02___PRT_ALL_AXES
100
AcDbCircle
 62
7
  6
CONTINUOUS
 10
5.3939511524
 20
6.1948300976
 40
0.3125
100
AcDbArc
 50
62.3055958749
 51
117.6944041251
  0
ARC
  5
3AD
100
AcDbEntity
  8
02___PRT_ALL_AXES
100
AcDbCircle
 62
7
  6
CONTINUOUS
 10
5.3939511524
 20
6.1948300976
 40
0.3125
100
AcDbArc
 50
152.3067412409
 51
207.6932587591
  0
CIRCLE
  5
3AE
100
AcDbEntity
  8
02___PRT_ALL_AXES
100
AcDbCircle
 62
7
  6
CONTINUOUS
 10
5.3939511524
 20
6.1948300976
 40
0.255
  0
ARC
  5
3AF
100
AcDbEntity
  8
0
100
AcDbCircle
 62
7
  6
CONTINUOUS
 10
4.4064511524
 20
5.2068300976
 40
0.25
100
AcDbArc
 50
0.0
 51
90.0
  0
ARC
  5
3B0
100
AcDbEntity
  8
0
100
AcDbCircle
 62
7
  6
CONTINUOUS
 10
5.7814511524
 20
4.8318300976
 40
0.25
100
AcDbArc
 50
270.0
 51
360.0
  0
ARC
  5
3B1
100
AcDbEntity
  8
0
100
AcDbCircle
 62
7
  6
CONTINUOUS
 10
5.7814511524
 20
6.5818300976
 40
0.25
100
AcDbArc
 50
0.0
 51
90.0
  0
ARC
  5
3B2
100
AcDbEntity
  8
0
100
AcDbCircle
 62
7
  6
CONTINUOUS
 10
4.0314511524
 20
6.5818300976
 40
0.25
100
AcDbArc
 50
90.0
 51
180.0
  0
ARC
  5
3B3
100
AcDbEntity
  8
0
100
AcDbCircle
 62
7
  6
CONTINUOUS
 10
4.0314511524
 20
5.7068300976
 40
0.25
100
AcDbArc
 50
180.0
 51
270.0
  0
ARC
  5
3B4
100
AcDbEntity
  8
0
100
AcDbCircle
 62
7
  6
CONTINUOUS
 10
4.9064511524
 20
4.8318300976
 40
0.25
100
AcDbArc
 50
180.0
 51
270.0
  0
CIRCLE
  5
3B5
100
AcDbEntity
  8
02___PRT_ALL_AXES
100
AcDbCircle
 62
7
  6
CONTINUOUS
 10
5.3939511524
 20
6.1948300976
 40
0.155
  0
CIRCLE
  5
3B6
100
AcDbEntity
  8
0
100
AcDbCircle
 62
7
  6
CONTINUOUS
 10
5.6639511524
 20
6.4648300976
 40
0.125
  0
CIRCLE
  5
3B7
100
AcDbEntity
  8
0
100
AcDbCircle
 62
7
  6
CONTINUOUS
 10
5.6639511524
 20
5.9248300976
 40
0.125
  0
CIRCLE
  5
3B8
100
AcDbEntity
  8
0
100
AcDbCircle
 62
7
  6
CONTINUOUS
 10
5.1239511524
 20
5.9248300976
 40
0.125
  0
CIRCLE
  5
3B9
100
AcDbEntity
  8
0
100
AcDbCircle
 62
7
  6
CONTINUOUS
 10
5.1239511524
 20
6.4648300976
 40
0.125
  0
CIRCLE
  5
3BA
100
AcDbEntity
  8
02___PRT_ALL_AXES
100
AcDbCircle
 62
7
  6
CONTINUOUS
 10
5.3939511524
 20
6.1948300976
 40
0.125
  0
CIRCLE
  5
3BB
100
AcDbEntity
  8
02___PRT_ALL_AXES
100
AcDbCircle
 62
7
  6
CONTINUOUS
 10
5.5314511524
 20
4.9568300976
 40
0.1015
  0
CIRCLE
  5
3BC
100
AcDbEntity
  8
02___PRT_ALL_AXES
100
AcDbCircle
 62
7
  6
CONTINUOUS
 10
4.1564511524
 20
6.3318300976
 40
0.1015
  0
CIRCLE
  5
3BD
100
AcDbEntity
  8
02___PRT_ALL_AXES
100
AcDbCircle
 62
7
  6
CONTINUOUS
 10
5.6639511524
 20
6.4648300976
 40
0.1
  0
CIRCLE
  5
3BE
100
AcDbEntity
  8
02___PRT_ALL_AXES
100
AcDbCircle
 62
7
  6
CONTINUOUS
 10
5.6639511524
 20
5.9248300976
 40
0.1
  0
CIRCLE
  5
3BF
100
AcDbEntity
  8
02___PRT_ALL_AXES
100
AcDbCircle
 62
7
  6
CONTINUOUS
 10
5.1239511524
 20
5.9248300976
 40
0.1
  0
CIRCLE
  5
3C0
100
AcDbEntity
  8
02___PRT_ALL_AXES
100
AcDbCircle
 62
7
  6
CONTINUOUS
 10
5.1239511524
 20
6.4648300976
 40
0.1
  0
CIRCLE
  5
3C1
100
AcDbEntity
  8
0
100
AcDbCircle
 62
7
  6
CONTINUOUS
 10
13.4614031732
 20
5.3260199602
 40
0.0625
  0
CIRCLE
  5
3C2
100
AcDbEntity
  8
0
100
AcDbCircle
 62
7
  6
CONTINUOUS
 10
13.4614031732
 20
6.4510199602
 40
0.0625
  0
ARC
  5
3C3
100
AcDbEntity
  8
0
100
AcDbCircle
 62
7
  6
CONTINUOUS
 10
13.0392181338
 20
5.2938349208
 40
0.0303149606
100
AcDbArc
 50
180.0
 51
270.0
  0
ARC
  5
3C4
100
AcDbEntity
  8
0
100
AcDbCircle
 62
7
  6
CONTINUOUS
 10
13.0392181338
 20
6.4832049996
 40
0.0303149606
100
AcDbArc
 50
90.0
 51
180.0
  0
ARC
  5
3C5
100
AcDbEntity
  8
0
100
AcDbCircle
 62
7
  6
CONTINUOUS
 10
13.3685882126
 20
5.2938349208
 40
0.0303149606
100
AcDbArc
 50
270.0
 51
360.0
  0
ARC
  5
3C6
100
AcDbEntity
  8
0
100
AcDbCircle
 62
7
  6
CONTINUOUS
 10
13.3685882126
 20
6.4832049996
 40
0.0303149606
100
AcDbArc
 50
0.0
 51
90.0
  0
ENDSEC
  0
SECTION
  2
OBJECTS
  0
DICTIONARY
  5
C
100
AcDbDictionary
280
0
281
1
  3
ACAD_GROUP
350
D
  3
ACAD_MLINESTYLE
350
17
  3
ACAD_LAYOUT
350
1A
  3
ACAD_PLOTSETTINGS
350
19
  3
ACAD_PLOTSTYLENAME
350
E
  3
ACAD_TABLESTYLE
350
       3C7
  0
DICTIONARY
  5
D
102
{ACAD_REACTORS
330
C
102
}
100
AcDbDictionary
280
0
281
1
  0
ACDBDICTIONARYWDFLT
  5
E
102
{ACAD_REACTORS
330
C
102
}
100
AcDbDictionary
281
1
  3
Normal
350
F
100
AcDbDictionaryWithDefault
340
F
  0
DICTIONARY
  5
17
102
{ACAD_REACTORS
330
C
102
}
100
AcDbDictionary
280
0
281
1
  3
Standard
350
18
  0
DICTIONARY
  5
3C7
330
C
100
AcDbDictionary
281
1
  3
Standard
350
       3CA
  3
Standard1
350
       3CB
  0
DICTIONARY
  5
19
102
{ACAD_REACTORS
330
C
102
}
100
AcDbDictionary
281
1
  0
DICTIONARY
  5
1A
102
{ACAD_REACTORS
330
C
102
}
100
AcDbDictionary
281
1
  3
Model
350
3C8
  3
Layout1
350
3C9
  0
ACDBPLACEHOLDER
  5
F
102
{ACAD_REACTORS
330
E
102
}
  0
MLINESTYLE
  5
18
102
{ACAD_REACTORS
330
17
102
}
100
AcDbMlineStyle
  2
STANDARD
 70
0
  3

 62
256
 51
90.0
 52
90.0
 71
2
 49
0.5
 62
256
  6
BYLAYER
 49
-0.5
 62
256
  6
BYLAYER
  0
LAYOUT
  5
3C8
102
{ACAD_REACTORS
330
1A
102
}
100
AcDbPlotSettings
  1

  2
none_device
  4
ANSI_B_(17.00_x_11.00_Inches)
  6

 40
0.0
 41
0.0
 42
0.0
 43
0.0
 44
431.8
 45
279.4
 46
0.0
 47
0.0
 48
0.0
 49
0.0
140
0.0
141
0.0
142
1.0
143
1.0
 70
1024
 72
0
 73
0
 74
0
  7

 75
0
147
1.0
148
0.0
149
0.0
100
AcDbLayout
  1
Model
 70
0
 71
0
 10
0.0
 20
0.0
 11
17.0
 21
11.0
 12
0.0
 22
0.0
 32
0.0
 14
0.0
 24
0.0
 34
0.0
 15
0.0
 25
0.0
 35
0.0
146
0.0
 13
0.0
 23
0.0
 33
0.0
 16
1.0
 26
0.0
 36
0.0
 17
0.0
 27
1.0
 37
0.0
 76
0
330
213
345
0
346
0
  0
LAYOUT
  5
3C9
102
{ACAD_REACTORS
330
1A
102
}
100
AcDbPlotSettings
  1

  2
none_device
  4
ANSI_B_(17.00_x_11.00_Inches)
  6

 40
0.0
 41
0.0
 42
0.0
 43
0.0
 44
431.8
 45
279.4
 46
0.0
 47
0.0
 48
0.0
 49
0.0
140
0.0
141
0.0
142
1.0
143
1.0
 70
0
 72
0
 73
0
 74
0
  7

 75
0
147
1.0
148
0.0
149
0.0
100
AcDbLayout
  1
Layout1
 70
0
 71
1
 10
0.0
 20
0.0
 11
17.0
 21
11.0
 12
0.0
 22
0.0
 32
0.0
 14
0.0
 24
0.0
 34
0.0
 15
0.0
 25
0.0
 35
0.0
146
0.0
 13
0.0
 23
0.0
 33
0.0
 16
1.0
 26
0.0
 36
0.0
 17
0.0
 27
1.0
 37
0.0
 76
0
330
214
345
0
346
0
  0
TABLESTYLE
  5
3CA
102
{ACAD_REACTORS
330
3C7
330
2FF
330
300
102
}
330
3C7
100
AcDbTableStyle
  3
Standard
 70
0
 71
0
 40
0.06
 41
0.06
280
1
281
1
  7
Standard
140
0.18
170
1
 62
0
 63
7
283
0
  7
Standard
140
0.18
170
1
 62
0
 63
7
283
0
  7
Standard
140
0.18
170
1
 62
0
 63
7
283
0
  0
TABLESTYLE
  5
3CB
102
{ACAD_REACTORS
330
3C7
330
2FC
330
2FD
330
2FE
102
}
330
3C7
100
AcDbTableStyle
  3
Standard1
 70
1
 71
0
 40
0.06
 41
0.06
280
1
281
1
  7
Standard
140
0.18
170
1
 62
0
 63
7
283
0
  7
Standard
140
0.18
170
1
 62
0
 63
7
283
0
  7
Standard
140
0.18
170
1
 62
0
 63
7
283
0
  0
ENDSEC
  0
EOF
