999
DXF file: C:\inetpub\wwwroot\eng-serve\buildlog\cnc_laser\drawings\xy_part_kit_rev_8.dxf
999
Pro/ENGINEER 2010100 by Parametric Technology Corporation
  0
SECTION
  2
HEADER
  9
$EXTMAX
 10
17.0
 20
11.0
 30
0.0
  9
$EXTMIN
 10
0.0
 20
0.0
 30
0.0
  9
$LIMMIN
 10
0.0
 20
0.0
  9
$LIMMAX
 10
17.0
 20
11.0
  9
$VIEWCTR
 10
8.5
 20
5.5
  9
$VIEWSIZE
 40
11.0
  9
$CLAYER
  8
0
  9
$LTSCALE
 40
0.935
  9
$CELTYPE
  6
BYLAYER
  9
$DIMSCALE
 40
1.0
  9
$DIMASZ
 40
0.1875
  9
$DIMEXO
 40
0.10625
  9
$DIMDLI
 40
0.646
  9
$DIMEXE
 40
0.306
  9
$DIMCEN
 40
0.153
  9
$DIMLFAC
 40
1.0
  9
$DIMBLK
  1
_FILLED
  9
$DIMTXT
 40
0.125
  9
$PDMODE
 70
3
  9
$PDSIZE
 40
0.3125
  9
$TILEMODE
 70
1
  0
ENDSEC
  0
SECTION
  2
TABLES
  0
TABLE
  2
LTYPE
 70
6
  0
LTYPE
  2
BYBLOCK
 70
0
  3

 72
65
 73
0
 40
0.0
  0
LTYPE
  2
BYLAYER
 70
0
  3

 72
65
 73
0
 40
0.0
  0
LTYPE
  2
CONTINUOUS
 70
64
  3
Solid line
 72
65
 73
0
 40
0.0
  0
LTYPE
  2
CENTER
 70
64
  3
____ _ ____ _ ____ _ ____ _ ____ _ ____ _ ____
 72
65
 73
4
 40
0.6
 49
0.375
 49
-0.075
 49
0.075
 49
-0.075
  0
LTYPE
  2
HIDDEN
 70
64
  3
- - - - - - - - - - - - - - - - - - - -
 72
65
 73
2
 40
0.2
 49
0.1
 49
-0.1
  0
LTYPE
  2
PHANTOM
 70
64
  3
_____ _ _ _____ _ _ _____ _ _ _____
 72
65
 73
6
 40
0.8
 49
0.45
 49
-0.05
 49
0.1
 49
-0.05
 49
0.1
 49
-0.05
  0
LTYPE
  2
DOT
 70
64
  3
. . . . . . . . . . . . . . . . . . . .
 72
65
 73
2
 40
0.2
 49
0.1
 49
-0.1
  0
LTYPE
  2
DASHED
 70
64
  3
- - - - - - - - - - - - - - - - - - - -
 72
65
 73
2
 40
0.2
 49
0.1
 49
-0.1
  0
ENDTAB
  0
TABLE
  2
LAYER
 70
36
  0
LAYER
  2
0
 70
0
 62
7
  6
CONTINUOUS
  0
LAYER
  2
DEFAULT_1
 70
0
 62
7
  6
CENTER
  0
LAYER
  2
DEFAULT_2
 70
0
 62
8
  6
HIDDEN
  0
LAYER
  2
DEFAULT_3
 70
0
 62
7
  6
PHANTOM
  0
LAYER
  2
01___PRT_ALL_DTM_PLN
 70
0
 62
7
  6
CONTINUOUS
  0
LAYER
  2
01___PRT_DEF_DTM_PLN
 70
0
 62
7
  6
CONTINUOUS
  0
LAYER
  2
02___PRT_ALL_AXES
 70
0
 62
7
  6
CONTINUOUS
  0
LAYER
  2
03___PRT_ALL_CURVES
 70
0
 62
7
  6
CONTINUOUS
  0
LAYER
  2
04___PRT_ALL_DTM_PNT
 70
0
 62
7
  6
CONTINUOUS
  0
LAYER
  2
05___PRT_ALL_DTM_CSYS
 70
0
 62
7
  6
CONTINUOUS
  0
LAYER
  2
05___PRT_DEF_DTM_CSYS
 70
0
 62
7
  6
CONTINUOUS
  0
LAYER
  2
06___PRT_ALL_SURFS
 70
0
 62
7
  6
CONTINUOUS
  0
LAYER
  2
BALLOONS
 70
0
 62
7
  6
CONTINUOUS
  0
LAYER
  2
COSMETIC
 70
0
 62
7
  6
CONTINUOUS
  0
LAYER
  2
DATUM_PLANES
 70
0
 62
7
  6
CONTINUOUS
  0
ENDTAB
  0
TABLE
  2
STYLE
 70
1
  0
STYLE
  2
STANDARD
 70
0
 40
0.0
 41
1.0
 50
0.0
 71
0
 42
0.2
  3
veramono.ttf
  4

  0
STYLE
  2
TEXTSTYLE_1
 70
0
 40
0.0
 41
0.8
 50
0.0
 71
0
 42
0.2
  3
gdt
  4

  0
STYLE
  2
TEXTSTYLE_2
 70
0
 40
0.0
 41
1.0
 50
0.0
 71
0
 42
0.2
  3
veramono.ttf
  4

  0
ENDTAB
  0
ENDSEC
  0
SECTION
  2
BLOCKS
  0
BLOCK
  8
0
  2
_FILLED
 70
64
 10
0.0
 20
0.0
  0
SOLID
  8
0
  6
BYBLOCK
 62
0
 10
0.0
 20
0.0
 11
-1.0
 21
0.1666666667
 12
-1.0
 22
-0.1666666667
 13
-1.0
 23
-0.1666666667
  0
ENDBLK
  8
0
  6
BYBLOCK
 62
0
  0
ENDSEC
  0
SECTION
  2
ENTITIES
  0
TEXT
  8
BALLOONS
 62
2
  6
CONTINUOUS
 10
14.4190236303
 20
0.5420899241
  7
TEXTSTYLE_2
 40
0.13
  1
www.buildlog.net
 41
1.0
 72
0
  0
TEXT
  8
BALLOONS
 62
2
  6
CONTINUOUS
 10
13.6113259234
 20
0.2361204814
  7
STANDARD
 40
0.08
  1
This work is licensed under a Creative Commons 
 41
1.0
 72
0
  0
TEXT
  8
BALLOONS
 62
2
  6
CONTINUOUS
 10
13.6113259234
 20
0.1161204814
  7
STANDARD
 40
0.08
  1
Attribution-Noncommercial-Share Alike 3.0 License
 41
1.0
 72
0
  0
TEXT
  8
BALLOONS
 62
2
  6
CONTINUOUS
 10
13.0852684373
 20
3.3048703632
  7
STANDARD
 40
0.075
  1
Rev 1 5/4/2010
 41
1.0
 72
0
  0
TEXT
  8
BALLOONS
 62
2
  6
CONTINUOUS
 10
13.0852684373
 20
3.1923703632
  7
STANDARD
 40
0.075
  1
Rev 2 5/7/2010 Added Cable Carrier Brkt, Taller Y Belt Plates
 41
1.0
 72
0
  0
TEXT
  8
BALLOONS
 62
2
  6
CONTINUOUS
 10
13.0852684373
 20
3.0798703632
  7
STANDARD
 40
0.075
  1
Rev 3 5/16/2010 Updated laser car plate and idler bracket
 41
1.0
 72
0
  0
TEXT
  8
BALLOONS
 62
2
  6
CONTINUOUS
 10
13.0852684373
 20
2.9673703632
  7
STANDARD
 40
0.075
  1
Rev 4 7/5/2010 Update slots in gantry mounting plates.
 41
1.0
 72
0
  0
TEXT
  8
BALLOONS
 62
2
  6
CONTINUOUS
 10
13.0852684373
 20
2.8548703632
  7
STANDARD
 40
0.075
  1
Rev 5 8/5/2010 Remove crop circles
 41
1.0
 72
0
  0
TEXT
  8
BALLOONS
 62
2
  6
CONTINUOUS
 10
13.0852684373
 20
2.7423703632
  7
STANDARD
 40
0.075
  1
Rev 6 10/19/2010 Changed Laser Car Plate. 
 41
1.0
 72
0
  0
TEXT
  8
BALLOONS
 62
2
  6
CONTINUOUS
 10
13.0852684373
 20
2.6298703632
  7
STANDARD
 40
0.075
  1
       Removed Laser Car clamp.
 41
1.0
 72
0
  0
TEXT
  8
BALLOONS
 62
2
  6
CONTINUOUS
 10
13.0852684373
 20
2.5173703632
  7
STANDARD
 40
0.075
  1
Rev 7 10/23/10 Update Y belt attachment and bearing blocks
 41
1.0
 72
0
  0
TEXT
  8
BALLOONS
 62
2
  6
CONTINUOUS
 10
13.0852684373
 20
2.4048703632
  7
STANDARD
 40
0.075
  1
Rev 8 10/30/10 Added rear mirror bracket
 41
1.0
 72
0
  0
TEXT
  8
BALLOONS
 62
2
  6
CONTINUOUS
 10
12.3814224735
 20
1.9269795311
  7
STANDARD
 40
0.125
  1
(*) OK to cut thru when fabbinf with laser
 41
1.0
 72
0
  0
TEXT
  8
BALLOONS
 62
2
  6
CONTINUOUS
 10
9.1509862298
 20
4.7339291325
  7
STANDARD
 40
0.125
  1
.185 Deep (*)
 41
1.0
 72
0
  0
LINE
  8
BALLOONS
 62
2
  6
CONTINUOUS
 10
8.8122005148
 20
4.3802153122
 11
8.9009862298
 21
4.7964291325
  0
LINE
  8
BALLOONS
 62
2
  6
CONTINUOUS
 10
8.9009862298
 20
4.7964291325
 11
9.1509862298
 21
4.7964291325
  0
SOLID
  8
BALLOONS
 62
2
  6
CONTINUOUS
 10
8.8207550866
 20
4.5701090504
 11
8.8122005148
 21
4.3802153122
 12
8.8818798356
 22
4.5570700683
 13
8.8818798356
 23
4.5570700683
  0
TEXT
  8
BALLOONS
 62
2
  6
CONTINUOUS
 10
9.1091542116
 20
5.0571765459
  7
STANDARD
 40
0.125
  1
Cut Thru
 41
1.0
 72
0
  0
LINE
  8
BALLOONS
 62
2
  6
CONTINUOUS
 10
8.5875619757
 20
4.356192396
 11
8.8591542116
 21
5.1196765459
  0
LINE
  8
BALLOONS
 62
2
  6
CONTINUOUS
 10
8.8591542116
 20
5.1196765459
 11
9.1091542116
 21
5.1196765459
  0
SOLID
  8
BALLOONS
 62
2
  6
CONTINUOUS
 10
8.6209606272
 20
4.5433216096
 11
8.5875619757
 21
4.356192396
 12
8.6798458504
 22
4.5223745219
 13
8.6798458504
 23
4.5223745219
  0
TEXT
  8
BALLOONS
 62
2
  6
CONTINUOUS
 10
5.0290544179
 20
2.8680561731
  7
STANDARD
 40
0.125
  1
.185 Deep (*)
 41
1.0
 72
0
  0
LINE
  8
BALLOONS
 62
2
  6
CONTINUOUS
 10
4.2551765776
 20
1.5271380117
 11
4.7790544179
 21
2.9305561731
  0
LINE
  8
BALLOONS
 62
2
  6
CONTINUOUS
 10
4.7790544179
 20
2.9305561731
 11
5.0290544179
 21
2.9305561731
  0
SOLID
  8
BALLOONS
 62
2
  6
CONTINUOUS
 10
4.2914716084
 20
1.7137270876
 11
4.2551765776
 21
1.5271380117
 12
4.3500250908
 22
1.6918698302
 13
4.3500250908
 23
1.6918698302
  0
TEXT
  8
BALLOONS
 62
2
  6
CONTINUOUS
 10
7.349767143
 20
2.9402267903
  7
STANDARD
 40
0.125
  1
.185 Deep (*)
 41
1.0
 72
0
  0
LINE
  8
BALLOONS
 62
2
  6
CONTINUOUS
 10
6.2454759243
 20
1.4436435184
 11
7.099767143
 21
3.0027267903
  0
LINE
  8
BALLOONS
 62
2
  6
CONTINUOUS
 10
7.099767143
 20
3.0027267903
 11
7.349767143
 21
3.0027267903
  0
SOLID
  8
BALLOONS
 62
2
  6
CONTINUOUS
 10
6.3081705925
 20
1.6230932079
 11
6.2454759243
 21
1.4436435184
 12
6.3629815908
 22
1.5930598188
 13
6.3629815908
 23
1.5930598188
  0
LINE
  8
0
 62
7
  6
CONTINUOUS
 10
0.0
 20
0.0
 11
0.0
 21
11.0
  0
LINE
  8
0
 62
7
  6
CONTINUOUS
 10
0.0
 20
0.0
 11
17.0
 21
0.0
  0
LINE
  8
BALLOONS
 62
7
  6
CONTINUOUS
 10
15.0148650774
 20
0.7874317505
 11
15.6218519937
 21
0.7874317505
  0
LINE
  8
BALLOONS
 62
7
  6
CONTINUOUS
 10
14.9891597721
 20
0.8131370558
 11
15.6218519937
 21
0.8131370558
  0
LINE
  8
BALLOONS
 62
7
  6
CONTINUOUS
 10
15.5549820627
 20
1.2115693255
 11
15.4412254688
 21
1.2115693255
  0
LINE
  8
BALLOONS
 62
7
  6
CONTINUOUS
 10
15.4069005217
 20
1.2115693255
 11
15.1691941612
 21
1.2115693255
  0
LINE
  8
BALLOONS
 62
7
  6
CONTINUOUS
 10
15.5273253091
 20
1.2430310322
 11
15.4647011134
 21
1.2430310322
  0
LINE
  8
BALLOONS
 62
7
  6
CONTINUOUS
 10
15.4303761663
 20
1.2430310322
 11
15.2003595622
 21
1.2430310322
  0
LINE
  8
BALLOONS
 62
7
  6
CONTINUOUS
 10
15.2003595622
 20
1.2494386541
 11
15.4351573136
 21
1.2494386541
  0
LINE
  8
BALLOONS
 62
7
  6
CONTINUOUS
 10
15.4694822607
 20
1.2494386541
 11
15.5273253091
 21
1.2494386541
  0
LINE
  8
BALLOONS
 62
7
  6
CONTINUOUS
 10
15.5273253091
 20
1.2862825597
 11
15.4969739173
 21
1.2862825597
  0
LINE
  8
BALLOONS
 62
7
  6
CONTINUOUS
 10
15.4626489702
 20
1.2862825597
 11
15.2003595622
 21
1.2862825597
  0
LINE
  8
BALLOONS
 62
7
  6
CONTINUOUS
 10
15.2003595622
 20
1.2926901816
 11
15.4674301175
 21
1.2926901816
  0
LINE
  8
BALLOONS
 62
7
  6
CONTINUOUS
 10
15.5017550645
 20
1.2926901816
 11
15.5273253091
 21
1.2926901816
  0
LINE
  8
BALLOONS
 62
7
  6
CONTINUOUS
 10
15.5273253091
 20
1.3295340873
 11
15.2003595622
 21
1.3295340873
  0
LINE
  8
BALLOONS
 62
7
  6
CONTINUOUS
 10
15.2003595622
 20
1.3359417091
 11
15.5273253091
 21
1.3359417091
  0
LINE
  8
BALLOONS
 62
7
  6
CONTINUOUS
 10
15.5273253091
 20
1.3727856148
 11
15.2003595622
 21
1.3727856148
  0
LINE
  8
BALLOONS
 62
7
  6
CONTINUOUS
 10
15.2003595622
 20
1.3791932367
 11
15.5273253091
 21
1.3791932367
  0
LINE
  8
BALLOONS
 62
7
  6
CONTINUOUS
 10
15.4952698732
 20
1.4144352228
 11
15.2244011485
 21
1.4144352228
  0
LINE
  8
BALLOONS
 62
7
  6
CONTINUOUS
 10
15.2244011485
 20
1.4384638471
 11
15.4952698732
 21
1.4384638471
  0
LINE
  8
BALLOONS
 62
7
  6
CONTINUOUS
 10
15.1691941612
 20
1.478904527
 11
15.5549820627
 21
1.478904527
  0
LINE
  8
BALLOONS
 62
7
  6
CONTINUOUS
 10
14.9891597721
 20
1.6100015952
 11
15.6630026886
 21
1.6100015952
  0
LINE
  8
BALLOONS
 62
7
  6
CONTINUOUS
 10
15.2592113182
 20
1.013638471
 11
15.2812602385
 21
0.9971863242
  0
LINE
  8
BALLOONS
 62
7
  6
CONTINUOUS
 10
15.4737276226
 20
1.3011300035
 11
15.495776543
 21
1.2846778567
  0
LINE
  8
BALLOONS
 62
7
  6
CONTINUOUS
 10
15.4881077653
 20
1.3150452852
 11
15.5050216238
 21
1.3024247451
  0
LINE
  8
BALLOONS
 62
7
  6
CONTINUOUS
 10
14.9891597721
 20
0.8131370558
 11
15.0148650774
 21
0.7874317505
  0
LINE
  8
BALLOONS
 62
7
  6
CONTINUOUS
 10
15.6630026886
 20
1.6100015952
 11
15.6887079939
 21
1.58429629
  0
LINE
  8
0
 62
7
  6
CONTINUOUS
 10
0.0
 20
11.0
 11
17.0
 21
11.0
  0
LINE
  8
BALLOONS
 62
7
  6
CONTINUOUS
 10
14.9891597721
 20
0.8131370558
 11
14.9891597721
 21
1.6100015952
  0
LINE
  8
BALLOONS
 62
7
  6
CONTINUOUS
 10
15.0791769667
 20
1.6100015952
 11
15.0791769667
 21
0.8131370558
  0
LINE
  8
BALLOONS
 62
7
  6
CONTINUOUS
 10
15.1691941612
 20
1.2115693255
 11
15.1691941612
 21
1.478904527
  0
LINE
  8
BALLOONS
 62
7
  6
CONTINUOUS
 10
15.2003595622
 20
1.2430310322
 11
15.2003595622
 21
1.2494386541
  0
LINE
  8
BALLOONS
 62
7
  6
CONTINUOUS
 10
15.2003595622
 20
1.2862825597
 11
15.2003595622
 21
1.2926901816
  0
LINE
  8
BALLOONS
 62
7
  6
CONTINUOUS
 10
15.2003595622
 20
1.3295340873
 11
15.2003595622
 21
1.3359417091
  0
LINE
  8
BALLOONS
 62
7
  6
CONTINUOUS
 10
15.2003595622
 20
1.3727856148
 11
15.2003595622
 21
1.3791932367
  0
LINE
  8
BALLOONS
 62
7
  6
CONTINUOUS
 10
15.2244011485
 20
1.4144352228
 11
15.2244011485
 21
1.4384638471
  0
LINE
  8
BALLOONS
 62
7
  6
CONTINUOUS
 10
15.4952698732
 20
1.4384638471
 11
15.4952698732
 21
1.4144352228
  0
LINE
  8
BALLOONS
 62
7
  6
CONTINUOUS
 10
15.5273253091
 20
1.3791932367
 11
15.5273253091
 21
1.3727856148
  0
LINE
  8
BALLOONS
 62
7
  6
CONTINUOUS
 10
15.5273253091
 20
1.3359417091
 11
15.5273253091
 21
1.3295340873
  0
LINE
  8
BALLOONS
 62
7
  6
CONTINUOUS
 10
15.5273253091
 20
1.2926901816
 11
15.5273253091
 21
1.2862825597
  0
LINE
  8
BALLOONS
 62
7
  6
CONTINUOUS
 10
15.5273253091
 20
1.2494386541
 11
15.5273253091
 21
1.2430310322
  0
LINE
  8
BALLOONS
 62
7
  6
CONTINUOUS
 10
15.5549820627
 20
1.478904527
 11
15.5549820627
 21
1.2115693255
  0
LINE
  8
BALLOONS
 62
7
  6
CONTINUOUS
 10
15.6630026886
 20
1.6100015952
 11
15.6630026886
 21
0.8542877508
  0
LINE
  8
BALLOONS
 62
7
  6
CONTINUOUS
 10
15.6887079939
 20
1.58429629
 11
15.6887079939
 21
0.8542877508
  0
LINE
  8
BALLOONS
 62
7
  6
CONTINUOUS
 10
15.2592113182
 20
1.013638471
 11
15.2477098052
 21
0.9752234264
  0
LINE
  8
BALLOONS
 62
7
  6
CONTINUOUS
 10
15.2812602385
 20
0.9971863242
 11
15.2477098052
 21
0.9752234264
  0
LINE
  8
0
 62
7
  6
CONTINUOUS
 10
17.0
 20
0.0
 11
17.0
 21
11.0
  0
LINE
  8
BALLOONS
 62
7
  6
CONTINUOUS
 10
15.2592113182
 20
1.013638471
 11
15.483624431
 21
1.3143935576
  0
LINE
  8
BALLOONS
 62
7
  6
CONTINUOUS
 10
15.2812602385
 20
0.9971863242
 11
15.5056733514
 21
1.2979414108
  0
LINE
  8
0
 62
7
  6
CONTINUOUS
 10
0.4797743235
 20
5.9770878898
 11
3.9797743235
 21
5.9770878898
  0
LINE
  8
0
 62
7
  6
CONTINUOUS
 10
0.2297743235
 20
9.9330878898
 11
0.2297743235
 21
6.2270878898
  0
LINE
  8
0
 62
7
  6
CONTINUOUS
 10
0.2297743235
 20
10.0030878898
 11
0.2297743235
 21
10.5520878898
  0
LINE
  8
0
 62
7
  6
CONTINUOUS
 10
0.8893021918
 20
10.3055878898
 11
0.8893021918
 21
10.5185878898
  0
LINE
  8
0
 62
7
  6
CONTINUOUS
 10
0.9763021918
 20
10.5185878898
 11
0.9763021918
 21
10.4710878898
  0
LINE
  8
0
 62
7
  6
CONTINUOUS
 10
0.9763021918
 20
10.3530878898
 11
0.9763021918
 21
10.3055878898
  0
LINE
  8
0
 62
7
  6
CONTINUOUS
 10
1.6985243235
 20
6.8208378898
 11
1.6985243235
 21
6.6333378898
  0
LINE
  8
0
 62
7
  6
CONTINUOUS
 10
2.0702743235
 20
10.6620878898
 11
2.0702743235
 21
10.5470878898
  0
LINE
  8
0
 62
7
  6
CONTINUOUS
 10
2.1347743235
 20
10.3220878898
 11
2.1347743235
 21
10.0120878898
  0
LINE
  8
0
 62
7
  6
CONTINUOUS
 10
2.1607743235
 20
10.7520878898
 11
2.1607743235
 21
10.6620878898
  0
LINE
  8
0
 62
7
  6
CONTINUOUS
 10
2.1607743235
 20
10.5470878898
 11
2.1607743235
 21
10.3873872007
  0
LINE
  8
0
 62
7
  6
CONTINUOUS
 10
2.2987743235
 20
10.7520878898
 11
2.2987743235
 21
10.6620878898
  0
LINE
  8
0
 62
7
  6
CONTINUOUS
 10
2.2987743235
 20
10.5470878898
 11
2.2987743235
 21
10.3873872007
  0
LINE
  8
0
 62
7
  6
CONTINUOUS
 10
2.3247743235
 20
10.0120878898
 11
2.3247743235
 21
10.3220878898
  0
LINE
  8
0
 62
7
  6
CONTINUOUS
 10
2.3892743235
 20
10.5470878898
 11
2.3892743235
 21
10.6620878898
  0
LINE
  8
0
 62
7
  6
CONTINUOUS
 10
2.7610243235
 20
6.6333378898
 11
2.7610243235
 21
6.8208378898
  0
LINE
  8
0
 62
7
  6
CONTINUOUS
 10
3.4832464553
 20
10.5185878898
 11
3.4832464553
 21
10.4710878898
  0
LINE
  8
0
 62
7
  6
CONTINUOUS
 10
3.4832464553
 20
10.3530878898
 11
3.4832464553
 21
10.3055878898
  0
LINE
  8
0
 62
7
  6
CONTINUOUS
 10
3.5702464553
 20
10.3055878898
 11
3.5702464553
 21
10.5185878898
  0
LINE
  8
0
 62
7
  6
CONTINUOUS
 10
4.2297743235
 20
9.9330878898
 11
3.8547743235
 21
9.9330878898
  0
LINE
  8
0
 62
7
  6
CONTINUOUS
 10
0.2297743235
 20
9.9330878898
 11
0.6047743235
 21
9.9330878898
  0
LINE
  8
0
 62
7
  6
CONTINUOUS
 10
4.2297743235
 20
10.0030878898
 11
3.8547743235
 21
10.0030878898
  0
LINE
  8
0
 62
7
  6
CONTINUOUS
 10
0.2297743235
 20
10.0030878898
 11
0.6047743235
 21
10.0030878898
  0
LINE
  8
0
 62
7
  6
CONTINUOUS
 10
4.2297743235
 20
10.5520878898
 11
4.2297743235
 21
10.0030878898
  0
LINE
  8
0
 62
7
  6
CONTINUOUS
 10
4.2297743235
 20
6.2270878898
 11
4.2297743235
 21
9.9330878898
  0
LINE
  8
0
 62
7
  6
CONTINUOUS
 10
1.0328021918
 20
10.3530878898
 11
0.9763021918
 21
10.3530878898
  0
LINE
  8
0
 62
7
  6
CONTINUOUS
 10
3.4267464553
 20
10.3530878898
 11
3.4832464553
 21
10.3530878898
  0
LINE
  8
0
 62
7
  6
CONTINUOUS
 10
3.4832464553
 20
10.4710878898
 11
3.4267464553
 21
10.4710878898
  0
LINE
  8
0
 62
7
  6
CONTINUOUS
 10
0.9763021918
 20
10.4710878898
 11
1.0328021918
 21
10.4710878898
  0
LINE
  8
0
 62
7
  6
CONTINUOUS
 10
2.0702743235
 20
10.5470878898
 11
2.1607743235
 21
10.5470878898
  0
LINE
  8
0
 62
7
  6
CONTINUOUS
 10
2.2987743235
 20
10.5470878898
 11
2.3892743235
 21
10.5470878898
  0
LINE
  8
0
 62
7
  6
CONTINUOUS
 10
2.3892743235
 20
10.6620878898
 11
2.2987743235
 21
10.6620878898
  0
LINE
  8
0
 62
7
  6
CONTINUOUS
 10
2.1607743235
 20
10.6620878898
 11
2.0702743235
 21
10.6620878898
  0
LINE
  8
0
 62
7
  6
CONTINUOUS
 10
0.4797743235
 20
10.8020878898
 11
2.1107743235
 21
10.8020878898
  0
LINE
  8
0
 62
7
  6
CONTINUOUS
 10
2.3487743235
 20
10.8020878898
 11
3.9797743235
 21
10.8020878898
  0
LINE
  8
0
 62
7
  6
CONTINUOUS
 10
4.8414241159
 20
5.8632820584
 11
5.1538770659
 21
5.8632820584
  0
LINE
  8
0
 62
7
  6
CONTINUOUS
 10
5.2238770659
 20
5.8632820584
 11
7.6914241159
 21
5.8632820584
  0
LINE
  8
02___PRT_ALL_AXES
 62
7
  6
CONTINUOUS
 10
4.4664241159
 20
10.4882820584
 11
4.4664241159
 21
7.2860048716
  0
LINE
  8
02___PRT_ALL_AXES
 62
7
  6
CONTINUOUS
 10
4.4664241159
 20
7.2285592452
 11
4.4664241159
 21
6.2382820584
  0
LINE
  8
0
 62
7
  6
CONTINUOUS
 10
5.1538770659
 20
10.8632820584
 11
5.1538770659
 21
10.4882820584
  0
LINE
  8
0
 62
7
  6
CONTINUOUS
 10
5.1538770659
 20
5.8632820584
 11
5.1538770659
 21
6.2382820584
  0
LINE
  8
0
 62
7
  6
CONTINUOUS
 10
5.2238770659
 20
10.8632820584
 11
5.2238770659
 21
10.4882820584
  0
LINE
  8
0
 62
7
  6
CONTINUOUS
 10
5.2238770659
 20
5.8632820584
 11
5.2238770659
 21
6.2382820584
  0
LINE
  8
0
 62
7
  6
CONTINUOUS
 10
5.1454241159
 20
7.1634828458
 11
4.8324241159
 21
7.1634828458
  0
LINE
  8
0
 62
7
  6
CONTINUOUS
 10
4.8324241159
 20
7.3504828458
 11
5.1454241159
 21
7.3504828458
  0
LINE
  8
0
 62
7
  6
CONTINUOUS
 10
8.0664241159
 20
6.2382820584
 11
8.0664241159
 21
10.4882820584
  0
LINE
  8
0
 62
7
  6
CONTINUOUS
 10
7.6914241159
 20
10.8632820584
 11
5.2238770659
 21
10.8632820584
  0
LINE
  8
0
 62
7
  6
CONTINUOUS
 10
5.1538770659
 20
10.8632820584
 11
4.8414241159
 21
10.8632820584
  0
LINE
  8
0
 62
7
  6
CONTINUOUS
 10
8.7709826741
 20
5.8744721065
 11
9.0834356241
 21
5.8744721065
  0
LINE
  8
0
 62
7
  6
CONTINUOUS
 10
9.1534356241
 20
5.8744721065
 11
11.6209826741
 21
5.8744721065
  0
LINE
  8
02___PRT_ALL_AXES
 62
7
  6
CONTINUOUS
 10
8.3959826741
 20
10.4994721065
 11
8.3959826741
 21
7.2971949198
  0
LINE
  8
02___PRT_ALL_AXES
 62
7
  6
CONTINUOUS
 10
8.3959826741
 20
7.2397492933
 11
8.3959826741
 21
6.2494721065
  0
LINE
  8
0
 62
7
  6
CONTINUOUS
 10
9.0834356241
 20
10.8744721065
 11
9.0834356241
 21
10.4994721065
  0
LINE
  8
0
 62
7
  6
CONTINUOUS
 10
9.0834356241
 20
5.8744721065
 11
9.0834356241
 21
6.2494721065
  0
LINE
  8
0
 62
7
  6
CONTINUOUS
 10
9.1534356241
 20
10.8744721065
 11
9.1534356241
 21
10.4994721065
  0
LINE
  8
0
 62
7
  6
CONTINUOUS
 10
9.1534356241
 20
5.8744721065
 11
9.1534356241
 21
6.2494721065
  0
LINE
  8
0
 62
7
  6
CONTINUOUS
 10
9.0749826741
 20
7.1746728939
 11
8.7619826741
 21
7.1746728939
  0
LINE
  8
0
 62
7
  6
CONTINUOUS
 10
8.7619826741
 20
7.3616728939
 11
9.0749826741
 21
7.3616728939
  0
LINE
  8
0
 62
7
  6
CONTINUOUS
 10
11.9959826741
 20
6.2494721065
 11
11.9959826741
 21
10.4994721065
  0
LINE
  8
0
 62
7
  6
CONTINUOUS
 10
11.6209826741
 20
10.8744721065
 11
9.1534356241
 21
10.8744721065
  0
LINE
  8
0
 62
7
  6
CONTINUOUS
 10
9.0834356241
 20
10.8744721065
 11
8.7709826741
 21
10.8744721065
  0
LINE
  8
0
 62
7
  6
CONTINUOUS
 10
0.4416842587
 20
3.3313621887
 11
2.4416842587
 21
3.3313621887
  0
LINE
  8
0
 62
7
  6
CONTINUOUS
 10
0.4416842587
 20
5.5606928973
 11
0.4416842587
 21
3.3313621887
  0
LINE
  8
02___PRT_ALL_AXES
 62
7
  6
CONTINUOUS
 10
2.4416842587
 20
3.3313621887
 11
2.4416842587
 21
5.3026393754
  0
LINE
  8
02___PRT_ALL_AXES
 62
7
  6
CONTINUOUS
 10
2.4416842587
 20
5.3600850019
 11
2.4416842587
 21
5.5606928973
  0
LINE
  8
0
 62
7
  6
CONTINUOUS
 10
2.1916842587
 20
5.8106928973
 11
0.6916842587
 21
5.8106928973
  0
LINE
  8
0
 62
7
  6
CONTINUOUS
 10
7.0449856378
 20
5.3427689912
 11
7.0449856378
 21
4.2802689912
  0
LINE
  8
0
 62
7
  6
CONTINUOUS
 10
8.2449856378
 20
3.5927689912
 11
8.8993163464
 21
3.5927689912
  0
LINE
  8
0
 62
7
  6
CONTINUOUS
 10
7.0449856378
 20
4.2802689912
 11
7.8699856378
 21
4.2802689912
  0
LINE
  8
0
 62
7
  6
CONTINUOUS
 10
7.9949856378
 20
3.8427689912
 11
7.9949856378
 21
4.1552689912
  0
LINE
  8
0
 62
7
  6
CONTINUOUS
 10
8.2743163464
 20
5.0927689912
 11
8.2743163464
 21
4.9052689912
  0
LINE
  8
0
 62
7
  6
CONTINUOUS
 10
8.8993163464
 20
4.6552689912
 11
8.5243163464
 21
4.6552689912
  0
LINE
  8
0
 62
7
  6
CONTINUOUS
 10
8.0243163464
 20
5.3427689912
 11
7.0449856378
 21
5.3427689912
  0
LINE
  8
0
 62
7
  6
CONTINUOUS
 10
9.1493163464
 20
3.8427689912
 11
9.1493163464
 21
4.4052689912
  0
LINE
  8
0
 62
7
  6
CONTINUOUS
 10
12.6441604605
 20
10.3282155095
 11
12.6441604605
 21
9.5782155095
  0
LINE
  8
0
 62
7
  6
CONTINUOUS
 10
12.9676604605
 20
10.4642155095
 11
12.9676604605
 21
10.2302155095
  0
LINE
  8
0
 62
7
  6
CONTINUOUS
 10
12.9676604605
 20
9.6762155095
 11
12.9676604605
 21
9.4422155095
  0
LINE
  8
0
 62
7
  6
CONTINUOUS
 10
13.1086604605
 20
9.4422155095
 11
13.1086604605
 21
9.6762155095
  0
LINE
  8
0
 62
7
  6
CONTINUOUS
 10
13.1086604605
 20
10.2302155095
 11
13.1086604605
 21
10.4642155095
  0
LINE
  8
0
 62
7
  6
CONTINUOUS
 10
13.7556604605
 20
10.4642155095
 11
13.7556604605
 21
10.2302155095
  0
LINE
  8
0
 62
7
  6
CONTINUOUS
 10
13.7556604605
 20
9.6762155095
 11
13.7556604605
 21
9.4422155095
  0
LINE
  8
0
 62
7
  6
CONTINUOUS
 10
13.8966604605
 20
9.4422155095
 11
13.8966604605
 21
9.6762155095
  0
LINE
  8
0
 62
7
  6
CONTINUOUS
 10
13.8966604605
 20
10.2302155095
 11
13.8966604605
 21
10.4642155095
  0
LINE
  8
0
 62
7
  6
CONTINUOUS
 10
13.0191604605
 20
9.2032155095
 11
16.1441604605
 21
9.2032155095
  0
LINE
  8
0
 62
7
  6
CONTINUOUS
 10
15.6591604605
 20
9.4517155095
 11
15.9091604605
 21
9.4517155095
  0
LINE
  8
0
 62
7
  6
CONTINUOUS
 10
15.9091604605
 20
9.5767155095
 11
15.6591604605
 21
9.5767155095
  0
LINE
  8
0
 62
7
  6
CONTINUOUS
 10
16.1041604605
 20
9.8967155095
 11
16.3541604605
 21
9.8967155095
  0
LINE
  8
0
 62
7
  6
CONTINUOUS
 10
16.3541604605
 20
10.0217155095
 11
16.1041604605
 21
10.0217155095
  0
LINE
  8
0
 62
7
  6
CONTINUOUS
 10
16.1441604605
 20
10.7032155095
 11
13.0191604605
 21
10.7032155095
  0
LINE
  8
0
 62
7
  6
CONTINUOUS
 10
16.5191604605
 20
9.5782155095
 11
16.5191604605
 21
10.3282155095
  0
LINE
  8
0
 62
7
  6
CONTINUOUS
 10
10.7485472824
 20
1.3486073475
 11
10.7485472824
 21
0.5986073475
  0
LINE
  8
0
 62
7
  6
CONTINUOUS
 10
11.1235472824
 20
0.2236073475
 11
11.8735472824
 21
0.2236073475
  0
LINE
  8
0
 62
7
  6
CONTINUOUS
 10
12.2485472824
 20
0.5986073475
 11
12.2485472824
 21
1.3486073475
  0
LINE
  8
0
 62
7
  6
CONTINUOUS
 10
11.8735472824
 20
1.7236073475
 11
11.1235472824
 21
1.7236073475
  0
LINE
  8
0
 62
7
  6
CONTINUOUS
 10
13.3400650207
 20
6.1934193863
 11
13.3400650207
 21
3.9334193863
  0
LINE
  8
02___PRT_ALL_AXES
 62
7
  6
CONTINUOUS
 10
13.3400650207
 20
3.9334193863
 11
13.5613422075
 21
3.9334193863
  0
LINE
  8
02___PRT_ALL_AXES
 62
7
  6
CONTINUOUS
 10
13.6187878339
 20
3.9334193863
 11
16.0613422075
 21
3.9334193863
  0
LINE
  8
02___PRT_ALL_AXES
 62
7
  6
CONTINUOUS
 10
16.1187878339
 20
3.9334193863
 11
16.3400650207
 21
3.9334193863
  0
LINE
  8
02___PRT_ALL_AXES
 62
7
  6
CONTINUOUS
 10
16.3400650207
 20
6.1934193863
 11
14.4937878339
 21
6.1934193863
  0
LINE
  8
02___PRT_ALL_AXES
 62
7
  6
CONTINUOUS
 10
14.4363422075
 20
6.1934193863
 11
13.6187878339
 21
6.1934193863
  0
LINE
  8
02___PRT_ALL_AXES
 62
7
  6
CONTINUOUS
 10
13.5613422075
 20
6.1934193863
 11
13.3400650207
 21
6.1934193863
  0
LINE
  8
0
 62
7
  6
CONTINUOUS
 10
16.3400650207
 20
3.9334193863
 11
16.3400650207
 21
6.1934193863
  0
LINE
  8
0
 62
7
  6
CONTINUOUS
 10
12.8987676641
 20
8.8670823846
 11
12.8987676641
 21
6.6070823846
  0
LINE
  8
02___PRT_ALL_AXES
 62
7
  6
CONTINUOUS
 10
12.8987676641
 20
6.6070823846
 11
13.1200448509
 21
6.6070823846
  0
LINE
  8
02___PRT_ALL_AXES
 62
7
  6
CONTINUOUS
 10
13.1774904774
 20
6.6070823846
 11
15.6200448509
 21
6.6070823846
  0
LINE
  8
02___PRT_ALL_AXES
 62
7
  6
CONTINUOUS
 10
15.6774904774
 20
6.6070823846
 11
15.8987676641
 21
6.6070823846
  0
LINE
  8
02___PRT_ALL_AXES
 62
7
  6
CONTINUOUS
 10
15.8987676641
 20
8.8670823846
 11
14.0524904774
 21
8.8670823846
  0
LINE
  8
02___PRT_ALL_AXES
 62
7
  6
CONTINUOUS
 10
13.9950448509
 20
8.8670823846
 11
13.1774904774
 21
8.8670823846
  0
LINE
  8
02___PRT_ALL_AXES
 62
7
  6
CONTINUOUS
 10
13.1200448509
 20
8.8670823846
 11
12.8987676641
 21
8.8670823846
  0
LINE
  8
0
 62
7
  6
CONTINUOUS
 10
15.8987676641
 20
6.6070823846
 11
15.8987676641
 21
8.8670823846
  0
LINE
  8
0
 62
7
  6
CONTINUOUS
 10
7.8821214002
 20
2.527865818
 11
7.8821214002
 21
0.527865818
  0
LINE
  8
0
 62
7
  6
CONTINUOUS
 10
8.1321214002
 20
0.277865818
 11
10.1321214002
 21
0.277865818
  0
LINE
  8
0
 62
7
  6
CONTINUOUS
 10
9.5071214002
 20
2.527865818
 11
9.5071214002
 21
2.152865818
  0
LINE
  8
0
 62
7
  6
CONTINUOUS
 10
10.1321214002
 20
1.902865818
 11
9.7571214002
 21
1.902865818
  0
LINE
  8
0
 62
7
  6
CONTINUOUS
 10
10.3821214002
 20
0.527865818
 11
10.3821214002
 21
1.652865818
  0
LINE
  8
0
 62
7
  6
CONTINUOUS
 10
9.2571214002
 20
2.777865818
 11
8.1321214002
 21
2.777865818
  0
LINE
  8
0
 62
7
  6
CONTINUOUS
 10
2.9861693861
 20
5.347686309
 11
2.9861693861
 21
4.222686309
  0
LINE
  8
0
 62
7
  6
CONTINUOUS
 10
3.5646693861
 20
4.559186309
 11
3.5646693861
 21
4.766186309
  0
LINE
  8
0
 62
7
  6
CONTINUOUS
 10
3.6576693861
 20
4.766186309
 11
3.6576693861
 21
4.721686309
  0
LINE
  8
0
 62
7
  6
CONTINUOUS
 10
3.6576693861
 20
4.603686309
 11
3.6576693861
 21
4.559186309
  0
LINE
  8
0
 62
7
  6
CONTINUOUS
 10
2.9861693861
 20
4.222686309
 11
5.9861693861
 21
4.222686309
  0
LINE
  8
0
 62
7
  6
CONTINUOUS
 10
3.7166693861
 20
4.603686309
 11
3.6576693861
 21
4.603686309
  0
LINE
  8
0
 62
7
  6
CONTINUOUS
 10
5.2556693861
 20
4.603686309
 11
5.3146693861
 21
4.603686309
  0
LINE
  8
0
 62
7
  6
CONTINUOUS
 10
5.3146693861
 20
4.721686309
 11
5.2556693861
 21
4.721686309
  0
LINE
  8
0
 62
7
  6
CONTINUOUS
 10
3.6576693861
 20
4.721686309
 11
3.7166693861
 21
4.721686309
  0
LINE
  8
0
 62
7
  6
CONTINUOUS
 10
5.7361693861
 20
5.597686309
 11
3.2361693861
 21
5.597686309
  0
LINE
  8
0
 62
7
  6
CONTINUOUS
 10
5.3146693861
 20
4.766186309
 11
5.3146693861
 21
4.721686309
  0
LINE
  8
0
 62
7
  6
CONTINUOUS
 10
5.3146693861
 20
4.603686309
 11
5.3146693861
 21
4.559186309
  0
LINE
  8
0
 62
7
  6
CONTINUOUS
 10
5.4076693861
 20
4.559186309
 11
5.4076693861
 21
4.766186309
  0
LINE
  8
0
 62
7
  6
CONTINUOUS
 10
5.9861693861
 20
4.222686309
 11
5.9861693861
 21
5.347686309
  0
LINE
  8
0
 62
7
  6
CONTINUOUS
 10
0.7316335194
 20
0.8972687894
 11
0.7316335194
 21
1.7722687894
  0
LINE
  8
0
 62
7
  6
CONTINUOUS
 10
2.7316335194
 20
0.6472687894
 11
0.9816335194
 21
0.6472687894
  0
LINE
  8
0
 62
7
  6
CONTINUOUS
 10
1.6066335194
 20
2.6472687894
 11
1.6066335194
 21
2.2722687894
  0
LINE
  8
0
 62
7
  6
CONTINUOUS
 10
0.9816335194
 20
2.0222687894
 11
1.3566335194
 21
2.0222687894
  0
LINE
  8
0
 62
7
  6
CONTINUOUS
 10
2.9816335194
 20
2.6472687894
 11
2.9816335194
 21
0.8972687894
  0
LINE
  8
0
 62
7
  6
CONTINUOUS
 10
1.8566335194
 20
2.8972687894
 11
2.7316335194
 21
2.8972687894
  0
LINE
  8
0
 62
7
  6
CONTINUOUS
 10
3.7234265776
 20
0.8493890476
 11
4.4734265776
 21
0.8493890476
  0
LINE
  8
0
 62
7
  6
CONTINUOUS
 10
3.4734265776
 20
2.5236390476
 11
3.4734265776
 21
1.0993890476
  0
LINE
  8
0
 62
7
  6
CONTINUOUS
 10
4.7234265776
 20
1.0993890476
 11
4.7234265776
 21
2.5236390476
  0
LINE
  8
0
 62
7
  6
CONTINUOUS
 10
4.4734265776
 20
2.7736390476
 11
3.7234265776
 21
2.7736390476
  0
LINE
  8
0
 62
7
  6
CONTINUOUS
 10
5.642434039
 20
0.8222754569
 11
6.392434039
 21
0.8222754569
  0
LINE
  8
0
 62
7
  6
CONTINUOUS
 10
5.392434039
 20
2.4965254569
 11
5.392434039
 21
1.0722754569
  0
LINE
  8
0
 62
7
  6
CONTINUOUS
 10
6.642434039
 20
1.0722754569
 11
6.642434039
 21
2.4965254569
  0
LINE
  8
0
 62
7
  6
CONTINUOUS
 10
6.392434039
 20
2.7465254569
 11
5.642434039
 21
2.7465254569
  0
LINE
  8
0
 62
7
  6
CONTINUOUS
 10
3.133868356
 20
3.7231022135
 11
3.133868356
 21
3.2231022135
  0
LINE
  8
0
 62
7
  6
CONTINUOUS
 10
3.712368356
 20
3.5600491135
 11
3.712368356
 21
3.7670491135
  0
LINE
  8
0
 62
7
  6
CONTINUOUS
 10
3.805368356
 20
3.7670491135
 11
3.805368356
 21
3.7225491135
  0
LINE
  8
0
 62
7
  6
CONTINUOUS
 10
3.805368356
 20
3.6045491135
 11
3.805368356
 21
3.5600491135
  0
LINE
  8
0
 62
7
  6
CONTINUOUS
 10
3.133868356
 20
3.2231022135
 11
6.133868356
 21
3.2231022135
  0
LINE
  8
0
 62
7
  6
CONTINUOUS
 10
3.864368356
 20
3.6045491135
 11
3.805368356
 21
3.6045491135
  0
LINE
  8
0
 62
7
  6
CONTINUOUS
 10
5.403368356
 20
3.6045491135
 11
5.462368356
 21
3.6045491135
  0
LINE
  8
0
 62
7
  6
CONTINUOUS
 10
5.462368356
 20
3.7225491135
 11
5.403368356
 21
3.7225491135
  0
LINE
  8
0
 62
7
  6
CONTINUOUS
 10
3.805368356
 20
3.7225491135
 11
3.864368356
 21
3.7225491135
  0
LINE
  8
0
 62
7
  6
CONTINUOUS
 10
5.883868356
 20
3.9731022135
 11
3.383868356
 21
3.9731022135
  0
LINE
  8
0
 62
7
  6
CONTINUOUS
 10
5.462368356
 20
3.7670491135
 11
5.462368356
 21
3.7225491135
  0
LINE
  8
0
 62
7
  6
CONTINUOUS
 10
5.462368356
 20
3.6045491135
 11
5.462368356
 21
3.5600491135
  0
LINE
  8
0
 62
7
  6
CONTINUOUS
 10
5.555368356
 20
3.5600491135
 11
5.555368356
 21
3.7670491135
  0
LINE
  8
0
 62
7
  6
CONTINUOUS
 10
6.133868356
 20
3.2231022135
 11
6.133868356
 21
3.7231022135
  0
LINE
  8
0
 62
7
  6
CONTINUOUS
 10
10.838484434
 20
2.8065451415
 11
12.463484434
 21
2.8065451415
  0
LINE
  8
0
 62
7
  6
CONTINUOUS
 10
10.713484434
 20
5.4315451415
 11
10.713484434
 21
2.9315451415
  0
LINE
  8
0
 62
7
  6
CONTINUOUS
 10
11.0372442765
 20
4.446785299
 11
11.0372442765
 21
4.6643049841
  0
LINE
  8
0
 62
7
  6
CONTINUOUS
 10
11.1947245914
 20
4.6643049841
 11
11.1947245914
 21
4.446785299
  0
LINE
  8
0
 62
7
  6
CONTINUOUS
 10
11.4822442765
 20
4.891785299
 11
11.4822442765
 21
5.1093049841
  0
LINE
  8
0
 62
7
  6
CONTINUOUS
 10
11.6397245914
 20
5.1093049841
 11
11.6397245914
 21
4.891785299
  0
LINE
  8
0
 62
7
  6
CONTINUOUS
 10
12.588484434
 20
2.9315451415
 11
12.588484434
 21
5.4315451415
  0
LINE
  8
0
 62
7
  6
CONTINUOUS
 10
12.463484434
 20
5.5565451415
 11
10.838484434
 21
5.5565451415
  0
ARC
  8
BALLOONS
 62
7
  6
CONTINUOUS
 10
15.6218519937
 20
0.8542877508
 40
0.0668560002
 50
270.0
 51
360.0
  0
ARC
  8
BALLOONS
 62
7
  6
CONTINUOUS
 10
15.6218519937
 20
0.8542877508
 40
0.0411506949
 50
270.0
 51
360.0
  0
ARC
  8
BALLOONS
 62
7
  6
CONTINUOUS
 10
15.5031058204
 20
1.2998572141
 40
0.0032035165
 50
323.2709644759
 51
53.2709644759
  0
ARC
  8
BALLOONS
 62
7
  6
CONTINUOUS
 10
15.486191962
 20
1.3124777542
 40
0.0032035165
 50
53.2709644759
 51
143.2709644759
  0
ARC
  8
0
 62
7
  6
CONTINUOUS
 10
2.2297743235
 20
6.8208378898
 40
0.53125
 50
0.0
 51
180.0
  0
ARC
  8
0
 62
7
  6
CONTINUOUS
 10
2.2297743235
 20
6.6333378898
 40
0.53125
 50
180.0
 51
360.0
  0
ARC
  8
0
 62
7
  6
CONTINUOUS
 10
0.4797743235
 20
10.5520878898
 40
0.25
 50
90.0
 51
180.0
  0
ARC
  8
0
 62
7
  6
CONTINUOUS
 10
0.4797743235
 20
6.2270878898
 40
0.25
 50
180.0
 51
270.0
  0
ARC
  8
0
 62
7
  6
CONTINUOUS
 10
3.9797743235
 20
6.2270878898
 40
0.25
 50
270.0
 51
360.0
  0
ARC
  8
0
 62
7
  6
CONTINUOUS
 10
3.9797743235
 20
10.5520878898
 40
0.25
 50
0.0
 51
90.0
  0
ARC
  8
0
 62
7
  6
CONTINUOUS
 10
2.2297743235
 20
10.3220878898
 40
0.095
 50
0.0
 51
43.4215836608
  0
ARC
  8
0
 62
7
  6
CONTINUOUS
 10
2.2297743235
 20
10.0120878898
 40
0.095
 50
180.0
 51
360.0
  0
ARC
  8
0
 62
7
  6
CONTINUOUS
 10
2.2297743235
 20
10.3220878898
 40
0.095
 50
136.5784163392
 51
180.0
  0
CIRCLE
  8
02___PRT_ALL_AXES
 62
7
  6
CONTINUOUS
 10
0.7297743235
 20
7.6020878898
 40
0.095
  0
CIRCLE
  8
02___PRT_ALL_AXES
 62
7
  6
CONTINUOUS
 10
3.7297743235
 20
7.6020878898
 40
0.095
  0
ARC
  8
0
 62
7
  6
CONTINUOUS
 10
1.0328021918
 20
10.4120878898
 40
0.059
 50
270.0
 51
90.0
  0
ARC
  8
0
 62
7
  6
CONTINUOUS
 10
3.4267464553
 20
10.4120878898
 40
0.059
 50
90.0
 51
270.0
  0
CIRCLE
  8
02___PRT_ALL_AXES
 62
7
  6
CONTINUOUS
 10
1.5211129062
 20
7.5440170237
 40
0.053
  0
CIRCLE
  8
02___PRT_ALL_AXES
 62
7
  6
CONTINUOUS
 10
2.840010544
 20
7.5440170237
 40
0.053
  0
CIRCLE
  8
02___PRT_ALL_AXES
 62
7
  6
CONTINUOUS
 10
1.9738688117
 20
9.1912217481
 40
0.053
  0
ARC
  8
0
 62
7
  6
CONTINUOUS
 10
2.1107743235
 20
10.7520878898
 40
0.05
 50
0.0
 51
90.0
  0
ARC
  8
0
 62
7
  6
CONTINUOUS
 10
2.3487743235
 20
10.7520878898
 40
0.05
 50
90.0
 51
180.0
  0
ARC
  8
0
 62
7
  6
CONTINUOUS
 10
0.9328021918
 20
10.3055878898
 40
0.0435
 50
180.0
 51
360.0
  0
ARC
  8
0
 62
7
  6
CONTINUOUS
 10
0.9328021918
 20
10.5185878898
 40
0.0435
 50
0.0
 51
180.0
  0
ARC
  8
0
 62
7
  6
CONTINUOUS
 10
3.5267464553
 20
10.5185878898
 40
0.0435
 50
0.0
 51
180.0
  0
ARC
  8
0
 62
7
  6
CONTINUOUS
 10
3.5267464553
 20
10.3055878898
 40
0.0435
 50
180.0
 51
360.0
  0
ARC
  8
0
 62
7
  6
CONTINUOUS
 10
0.6047743235
 20
9.9680878898
 40
0.035
 50
270.0
 51
90.0
  0
ARC
  8
0
 62
7
  6
CONTINUOUS
 10
3.8547743235
 20
9.9680878898
 40
0.035
 50
90.0
 51
270.0
  0
ARC
  8
0
 62
7
  6
CONTINUOUS
 10
4.8414241159
 20
6.2382820584
 40
0.375
 50
180.0
 51
270.0
  0
ARC
  8
0
 62
7
  6
CONTINUOUS
 10
7.6914241159
 20
6.2382820584
 40
0.375
 50
270.0
 51
360.0
  0
ARC
  8
0
 62
7
  6
CONTINUOUS
 10
7.6914241159
 20
10.4882820584
 40
0.375
 50
0.0
 51
90.0
  0
ARC
  8
0
 62
7
  6
CONTINUOUS
 10
4.8414241159
 20
10.4882820584
 40
0.375
 50
90.0
 51
180.0
  0
CIRCLE
  8
02___PRT_ALL_AXES
 62
7
  6
CONTINUOUS
 10
4.8639241159
 20
8.0443844206
 40
0.109
  0
CIRCLE
  8
02___PRT_ALL_AXES
 62
7
  6
CONTINUOUS
 10
7.8039241159
 20
8.0443844206
 40
0.109
  0
CIRCLE
  8
02___PRT_ALL_AXES
 62
7
  6
CONTINUOUS
 10
7.8039241159
 20
7.2569828458
 40
0.109
  0
CIRCLE
  8
02___PRT_ALL_AXES
 62
7
  6
CONTINUOUS
 10
7.5539241159
 20
10.3632820584
 40
0.09375
  0
CIRCLE
  8
02___PRT_ALL_AXES
 62
7
  6
CONTINUOUS
 10
7.5539241159
 20
6.2382820584
 40
0.09375
  0
ARC
  8
0
 62
7
  6
CONTINUOUS
 10
4.8324241159
 20
7.2569828458
 40
0.0935
 50
90.0
 51
270.0
  0
ARC
  8
0
 62
7
  6
CONTINUOUS
 10
5.1454241159
 20
7.2569828458
 40
0.0935
 50
270.0
 51
90.0
  0
CIRCLE
  8
02___PRT_ALL_AXES
 62
7
  6
CONTINUOUS
 10
7.3889241159
 20
9.6132820584
 40
0.0625
  0
CIRCLE
  8
02___PRT_ALL_AXES
 62
7
  6
CONTINUOUS
 10
7.3889241159
 20
8.7382820584
 40
0.0625
  0
ARC
  8
0
 62
7
  6
CONTINUOUS
 10
5.1888770659
 20
6.2382820584
 40
0.035
 50
0.0
 51
180.0
  0
ARC
  8
0
 62
7
  6
CONTINUOUS
 10
5.1888770659
 20
10.4882820584
 40
0.035
 50
180.0
 51
360.0
  0
ARC
  8
02___PRT_ALL_AXES
 62
7
  6
CONTINUOUS
 10
4.4464241159
 20
7.2572820584
 40
0.035
 50
304.849904579
 51
55.150095421
  0
ARC
  8
0
 62
7
  6
CONTINUOUS
 10
8.7709826741
 20
6.2494721065
 40
0.375
 50
180.0
 51
270.0
  0
ARC
  8
0
 62
7
  6
CONTINUOUS
 10
11.6209826741
 20
6.2494721065
 40
0.375
 50
270.0
 51
360.0
  0
ARC
  8
0
 62
7
  6
CONTINUOUS
 10
11.6209826741
 20
10.4994721065
 40
0.375
 50
0.0
 51
90.0
  0
ARC
  8
0
 62
7
  6
CONTINUOUS
 10
8.7709826741
 20
10.4994721065
 40
0.375
 50
90.0
 51
180.0
  0
CIRCLE
  8
02___PRT_ALL_AXES
 62
7
  6
CONTINUOUS
 10
8.7934826741
 20
8.0555744687
 40
0.109
  0
CIRCLE
  8
02___PRT_ALL_AXES
 62
7
  6
CONTINUOUS
 10
11.7334826741
 20
8.0555744687
 40
0.109
  0
CIRCLE
  8
02___PRT_ALL_AXES
 62
7
  6
CONTINUOUS
 10
11.7334826741
 20
7.2681728939
 40
0.109
  0
CIRCLE
  8
02___PRT_ALL_AXES
 62
7
  6
CONTINUOUS
 10
11.4834826741
 20
10.3744721065
 40
0.09375
  0
CIRCLE
  8
02___PRT_ALL_AXES
 62
7
  6
CONTINUOUS
 10
11.4834826741
 20
6.2494721065
 40
0.09375
  0
ARC
  8
0
 62
7
  6
CONTINUOUS
 10
8.7619826741
 20
7.2681728939
 40
0.0935
 50
90.0
 51
270.0
  0
ARC
  8
0
 62
7
  6
CONTINUOUS
 10
9.0749826741
 20
7.2681728939
 40
0.0935
 50
270.0
 51
90.0
  0
CIRCLE
  8
02___PRT_ALL_AXES
 62
7
  6
CONTINUOUS
 10
11.3184826741
 20
9.6244721065
 40
0.0625
  0
CIRCLE
  8
02___PRT_ALL_AXES
 62
7
  6
CONTINUOUS
 10
11.3184826741
 20
8.7494721065
 40
0.0625
  0
ARC
  8
0
 62
7
  6
CONTINUOUS
 10
9.1184356241
 20
6.2494721065
 40
0.035
 50
0.0
 51
180.0
  0
ARC
  8
0
 62
7
  6
CONTINUOUS
 10
9.1184356241
 20
10.4994721065
 40
0.035
 50
180.0
 51
360.0
  0
ARC
  8
02___PRT_ALL_AXES
 62
7
  6
CONTINUOUS
 10
8.3759826741
 20
7.2684721065
 40
0.035
 50
304.849904579
 51
55.150095421
  0
CIRCLE
  8
0
 62
7
  6
CONTINUOUS
 10
1.4416842587
 20
4.9759892973
 40
0.5
  0
ARC
  8
0
 62
7
  6
CONTINUOUS
 10
2.1916842587
 20
5.5606928973
 40
0.25
 50
0.0
 51
90.0
  0
ARC
  8
0
 62
7
  6
CONTINUOUS
 10
0.6916842587
 20
5.5606928973
 40
0.25
 50
90.0
 51
180.0
  0
CIRCLE
  8
02___PRT_ALL_AXES
 62
7
  6
CONTINUOUS
 10
0.8316842587
 20
3.6856928973
 40
0.1175
  0
CIRCLE
  8
02___PRT_ALL_AXES
 62
7
  6
CONTINUOUS
 10
2.0516842587
 20
3.6856928973
 40
0.1175
  0
CIRCLE
  8
02___PRT_ALL_AXES
 62
7
  6
CONTINUOUS
 10
0.8316842587
 20
5.5859892973
 40
0.0855
  0
CIRCLE
  8
02___PRT_ALL_AXES
 62
7
  6
CONTINUOUS
 10
0.8316842587
 20
4.3659892973
 40
0.0855
  0
CIRCLE
  8
02___PRT_ALL_AXES
 62
7
  6
CONTINUOUS
 10
2.0516842587
 20
5.5859892973
 40
0.0855
  0
CIRCLE
  8
02___PRT_ALL_AXES
 62
7
  6
CONTINUOUS
 10
2.0516842587
 20
4.3659892973
 40
0.0855
  0
ARC
  8
02___PRT_ALL_AXES
 62
7
  6
CONTINUOUS
 10
2.4616842587
 20
5.3313621887
 40
0.035
 50
124.849904579
 51
235.150095421
  0
CIRCLE
  8
0
 62
7
  6
CONTINUOUS
 10
8.6896127464
 20
4.0927689912
 40
0.3125
  0
CIRCLE
  8
0
 62
7
  6
CONTINUOUS
 10
8.6896127464
 20
4.0927689912
 40
0.2825
  0
ARC
  8
0
 62
7
  6
CONTINUOUS
 10
8.5243163464
 20
4.9052689912
 40
0.25
 50
180.0
 51
270.0
  0
ARC
  8
0
 62
7
  6
CONTINUOUS
 10
8.2449856378
 20
3.8427689912
 40
0.25
 50
180.0
 51
270.0
  0
ARC
  8
0
 62
7
  6
CONTINUOUS
 10
8.8993163464
 20
3.8427689912
 40
0.25
 50
270.0
 51
360.0
  0
ARC
  8
0
 62
7
  6
CONTINUOUS
 10
8.8993163464
 20
4.4052689912
 40
0.25
 50
0.0
 51
90.0
  0
ARC
  8
0
 62
7
  6
CONTINUOUS
 10
8.0243163464
 20
5.0927689912
 40
0.25
 50
0.0
 51
90.0
  0
ARC
  8
0
 62
7
  6
CONTINUOUS
 10
7.8699856378
 20
4.1552689912
 40
0.125
 50
0.0
 51
90.0
  0
CIRCLE
  8
02___PRT_ALL_AXES
 62
7
  6
CONTINUOUS
 10
7.3993163464
 20
4.5302689912
 40
0.1175
  0
CIRCLE
  8
02___PRT_ALL_AXES
 62
7
  6
CONTINUOUS
 10
7.3993163464
 20
5.0302689912
 40
0.1175
  0
CIRCLE
  8
02___PRT_ALL_AXES
 62
7
  6
CONTINUOUS
 10
8.8806127464
 20
3.761947287
 40
0.059
  0
CIRCLE
  8
02___PRT_ALL_AXES
 62
7
  6
CONTINUOUS
 10
8.8806127464
 20
4.4235906955
 40
0.059
  0
CIRCLE
  8
02___PRT_ALL_AXES
 62
7
  6
CONTINUOUS
 10
8.3076127464
 20
4.0927689912
 40
0.059
  0
ARC
  8
0
 62
7
  6
CONTINUOUS
 10
13.0191604605
 20
10.3282155095
 40
0.375
 50
90.0
 51
180.0
  0
ARC
  8
0
 62
7
  6
CONTINUOUS
 10
13.0191604605
 20
9.5782155095
 40
0.375
 50
180.0
 51
270.0
  0
ARC
  8
0
 62
7
  6
CONTINUOUS
 10
16.1441604605
 20
9.5782155095
 40
0.375
 50
270.0
 51
360.0
  0
ARC
  8
0
 62
7
  6
CONTINUOUS
 10
16.1441604605
 20
10.3282155095
 40
0.375
 50
0.0
 51
90.0
  0
ARC
  8
0
 62
7
  6
CONTINUOUS
 10
13.8261604605
 20
10.2302155095
 40
0.0705
 50
180.0
 51
360.0
  0
ARC
  8
0
 62
7
  6
CONTINUOUS
 10
13.8261604605
 20
10.4642155095
 40
0.0705
 50
0.0
 51
180.0
  0
ARC
  8
0
 62
7
  6
CONTINUOUS
 10
13.8261604605
 20
9.4422155095
 40
0.0705
 50
180.0
 51
360.0
  0
ARC
  8
0
 62
7
  6
CONTINUOUS
 10
13.8261604605
 20
9.6762155095
 40
0.0705
 50
0.0
 51
180.0
  0
ARC
  8
0
 62
7
  6
CONTINUOUS
 10
13.0381604605
 20
10.2302155095
 40
0.0705
 50
180.0
 51
360.0
  0
ARC
  8
0
 62
7
  6
CONTINUOUS
 10
13.0381604605
 20
10.4642155095
 40
0.0705
 50
0.0
 51
180.0
  0
ARC
  8
0
 62
7
  6
CONTINUOUS
 10
13.0381604605
 20
9.4422155095
 40
0.0705
 50
180.0
 51
360.0
  0
ARC
  8
0
 62
7
  6
CONTINUOUS
 10
13.0381604605
 20
9.6762155095
 40
0.0705
 50
0.0
 51
180.0
  0
ARC
  8
0
 62
7
  6
CONTINUOUS
 10
16.3541604605
 20
9.9592155095
 40
0.0625
 50
270.0
 51
90.0
  0
ARC
  8
0
 62
7
  6
CONTINUOUS
 10
16.1041604605
 20
9.9592155095
 40
0.0625
 50
90.0
 51
270.0
  0
ARC
  8
0
 62
7
  6
CONTINUOUS
 10
15.9091604605
 20
9.5142155095
 40
0.0625
 50
270.0
 51
90.0
  0
ARC
  8
0
 62
7
  6
CONTINUOUS
 10
15.6591604605
 20
9.5142155095
 40
0.0625
 50
90.0
 51
270.0
  0
ARC
  8
0
 62
7
  6
CONTINUOUS
 10
11.1235472824
 20
1.3486073475
 40
0.375
 50
90.0
 51
180.0
  0
ARC
  8
0
 62
7
  6
CONTINUOUS
 10
11.1235472824
 20
0.5986073475
 40
0.375
 50
180.0
 51
270.0
  0
ARC
  8
0
 62
7
  6
CONTINUOUS
 10
11.8735472824
 20
0.5986073475
 40
0.375
 50
270.0
 51
360.0
  0
ARC
  8
0
 62
7
  6
CONTINUOUS
 10
11.8735472824
 20
1.3486073475
 40
0.375
 50
0.0
 51
90.0
  0
CIRCLE
  8
02___PRT_ALL_AXES
 62
7
  6
CONTINUOUS
 10
11.8924488572
 20
1.3673081349
 40
0.078
  0
CIRCLE
  8
02___PRT_ALL_AXES
 62
7
  6
CONTINUOUS
 10
11.8924488572
 20
0.5799065601
 40
0.078
  0
CIRCLE
  8
02___PRT_ALL_AXES
 62
7
  6
CONTINUOUS
 10
11.1050472824
 20
1.3673081349
 40
0.078
  0
CIRCLE
  8
02___PRT_ALL_AXES
 62
7
  6
CONTINUOUS
 10
11.1050472824
 20
0.5799065601
 40
0.078
  0
CIRCLE
  8
02___PRT_ALL_AXES
 62
7
  6
CONTINUOUS
 10
14.3738150207
 20
4.7895954633
 40
0.043
  0
CIRCLE
  8
02___PRT_ALL_AXES
 62
7
  6
CONTINUOUS
 10
13.7488150207
 20
4.7895954633
 40
0.043
  0
CIRCLE
  8
02___PRT_ALL_AXES
 62
7
  6
CONTINUOUS
 10
15.3063150207
 20
4.7895954633
 40
0.043
  0
CIRCLE
  8
02___PRT_ALL_AXES
 62
7
  6
CONTINUOUS
 10
15.9313150207
 20
4.7895954633
 40
0.043
  0
ARC
  8
02___PRT_ALL_AXES
 62
7
  6
CONTINUOUS
 10
16.0900650207
 20
3.9134193863
 40
0.035
 50
34.849904579
 51
145.150095421
  0
ARC
  8
02___PRT_ALL_AXES
 62
7
  6
CONTINUOUS
 10
14.4650650207
 20
6.2134193863
 40
0.035
 50
214.849904579
 51
325.150095421
  0
ARC
  8
02___PRT_ALL_AXES
 62
7
  6
CONTINUOUS
 10
13.5900650207
 20
6.2134193863
 40
0.035
 50
214.849904579
 51
325.150095421
  0
ARC
  8
02___PRT_ALL_AXES
 62
7
  6
CONTINUOUS
 10
13.5900650207
 20
3.9134193863
 40
0.035
 50
34.849904579
 51
145.150095421
  0
CIRCLE
  8
02___PRT_ALL_AXES
 62
7
  6
CONTINUOUS
 10
13.9325176641
 20
7.4632584616
 40
0.043
  0
CIRCLE
  8
02___PRT_ALL_AXES
 62
7
  6
CONTINUOUS
 10
13.3075176641
 20
7.4632584616
 40
0.043
  0
CIRCLE
  8
02___PRT_ALL_AXES
 62
7
  6
CONTINUOUS
 10
14.8650176641
 20
7.4632584616
 40
0.043
  0
CIRCLE
  8
02___PRT_ALL_AXES
 62
7
  6
CONTINUOUS
 10
15.4900176641
 20
7.4632584616
 40
0.043
  0
ARC
  8
02___PRT_ALL_AXES
 62
7
  6
CONTINUOUS
 10
15.6487676641
 20
6.5870823846
 40
0.035
 50
34.849904579
 51
145.150095421
  0
ARC
  8
02___PRT_ALL_AXES
 62
7
  6
CONTINUOUS
 10
14.0237676641
 20
8.8870823846
 40
0.035
 50
214.849904579
 51
325.150095421
  0
ARC
  8
02___PRT_ALL_AXES
 62
7
  6
CONTINUOUS
 10
13.1487676641
 20
8.8870823846
 40
0.035
 50
214.849904579
 51
325.150095421
  0
ARC
  8
02___PRT_ALL_AXES
 62
7
  6
CONTINUOUS
 10
13.1487676641
 20
6.5870823846
 40
0.035
 50
34.849904579
 51
145.150095421
  0
CIRCLE
  8
02___PRT_ALL_AXES
 62
7
  6
CONTINUOUS
 10
8.8321214002
 20
1.227865818
 40
0.5
  0
ARC
  8
0
 62
7
  6
CONTINUOUS
 10
9.7571214002
 20
2.152865818
 40
0.25
 50
180.0
 51
270.0
  0
ARC
  8
0
 62
7
  6
CONTINUOUS
 10
8.1321214002
 20
0.527865818
 40
0.25
 50
180.0
 51
270.0
  0
ARC
  8
0
 62
7
  6
CONTINUOUS
 10
10.1321214002
 20
0.527865818
 40
0.25
 50
270.0
 51
360.0
  0
ARC
  8
0
 62
7
  6
CONTINUOUS
 10
10.1321214002
 20
1.652865818
 40
0.25
 50
0.0
 51
90.0
  0
ARC
  8
0
 62
7
  6
CONTINUOUS
 10
9.2571214002
 20
2.527865818
 40
0.25
 50
0.0
 51
90.0
  0
ARC
  8
0
 62
7
  6
CONTINUOUS
 10
8.1321214002
 20
2.527865818
 40
0.25
 50
90.0
 51
180.0
  0
CIRCLE
  8
02___PRT_ALL_AXES
 62
7
  6
CONTINUOUS
 10
9.1946214002
 20
2.465365818
 40
0.1015
  0
CIRCLE
  8
02___PRT_ALL_AXES
 62
7
  6
CONTINUOUS
 10
10.0701214002
 20
1.590365818
 40
0.1015
  0
CIRCLE
  8
02___PRT_ALL_AXES
 62
7
  6
CONTINUOUS
 10
10.0701214002
 20
0.590365818
 40
0.1015
  0
CIRCLE
  8
02___PRT_ALL_AXES
 62
7
  6
CONTINUOUS
 10
8.1946214002
 20
2.465365818
 40
0.1015
  0
CIRCLE
  8
02___PRT_ALL_AXES
 62
7
  6
CONTINUOUS
 10
9.4421214002
 20
0.617865818
 40
0.07
  0
CIRCLE
  8
02___PRT_ALL_AXES
 62
7
  6
CONTINUOUS
 10
8.2221214002
 20
0.617865818
 40
0.07
  0
CIRCLE
  8
02___PRT_ALL_AXES
 62
7
  6
CONTINUOUS
 10
8.2221214002
 20
1.837865818
 40
0.07
  0
CIRCLE
  8
02___PRT_ALL_AXES
 62
7
  6
CONTINUOUS
 10
9.4421214002
 20
1.837865818
 40
0.07
  0
ARC
  8
0
 62
7
  6
CONTINUOUS
 10
5.7361693861
 20
5.347686309
 40
0.25
 50
0.0
 51
90.0
  0
ARC
  8
0
 62
7
  6
CONTINUOUS
 10
3.2361693861
 20
5.347686309
 40
0.25
 50
90.0
 51
180.0
  0
CIRCLE
  8
02___PRT_ALL_AXES
 62
7
  6
CONTINUOUS
 10
5.7361693861
 20
4.347686309
 40
0.0625
  0
CIRCLE
  8
02___PRT_ALL_AXES
 62
7
  6
CONTINUOUS
 10
3.2361693861
 20
4.347686309
 40
0.0625
  0
ARC
  8
0
 62
7
  6
CONTINUOUS
 10
3.7166693861
 20
4.662686309
 40
0.059
 50
270.0
 51
90.0
  0
ARC
  8
0
 62
7
  6
CONTINUOUS
 10
5.2556693861
 20
4.662686309
 40
0.059
 50
90.0
 51
270.0
  0
ARC
  8
0
 62
7
  6
CONTINUOUS
 10
3.6111693861
 20
4.559186309
 40
0.0465
 50
180.0
 51
360.0
  0
ARC
  8
0
 62
7
  6
CONTINUOUS
 10
3.6111693861
 20
4.766186309
 40
0.0465
 50
0.0
 51
180.0
  0
ARC
  8
0
 62
7
  6
CONTINUOUS
 10
5.3611693861
 20
4.559186309
 40
0.0465
 50
180.0
 51
360.0
  0
ARC
  8
0
 62
7
  6
CONTINUOUS
 10
5.3611693861
 20
4.766186309
 40
0.0465
 50
0.0
 51
180.0
  0
CIRCLE
  8
02___PRT_ALL_AXES
 62
7
  6
CONTINUOUS
 10
4.3481693861
 20
5.097686309
 40
0.043
  0
CIRCLE
  8
02___PRT_ALL_AXES
 62
7
  6
CONTINUOUS
 10
4.6241693861
 20
5.097686309
 40
0.043
  0
CIRCLE
  8
02___PRT_ALL_AXES
 62
7
  6
CONTINUOUS
 10
2.3446335194
 20
1.2842687894
 40
0.3125
  0
CIRCLE
  8
02___PRT_ALL_AXES
 62
7
  6
CONTINUOUS
 10
2.3446335194
 20
1.2842687894
 40
0.28
  0
ARC
  8
0
 62
7
  6
CONTINUOUS
 10
1.8566335194
 20
2.6472687894
 40
0.25
 50
90.0
 51
180.0
  0
ARC
  8
0
 62
7
  6
CONTINUOUS
 10
2.7316335194
 20
2.6472687894
 40
0.25
 50
0.0
 51
90.0
  0
ARC
  8
0
 62
7
  6
CONTINUOUS
 10
2.7316335194
 20
0.8972687894
 40
0.25
 50
270.0
 51
360.0
  0
ARC
  8
0
 62
7
  6
CONTINUOUS
 10
0.9816335194
 20
0.8972687894
 40
0.25
 50
180.0
 51
270.0
  0
ARC
  8
0
 62
7
  6
CONTINUOUS
 10
0.9816335194
 20
1.7722687894
 40
0.25
 50
90.0
 51
180.0
  0
ARC
  8
0
 62
7
  6
CONTINUOUS
 10
1.3566335194
 20
2.2722687894
 40
0.25
 50
270.0
 51
360.0
  0
CIRCLE
  8
02___PRT_ALL_AXES
 62
7
  6
CONTINUOUS
 10
1.1066335194
 20
1.1472687894
 40
0.1015
  0
CIRCLE
  8
02___PRT_ALL_AXES
 62
7
  6
CONTINUOUS
 10
2.4816335194
 20
2.5222687894
 40
0.1015
  0
CIRCLE
  8
02___PRT_ALL_AXES
 62
7
  6
CONTINUOUS
 10
2.7266335194
 20
1.2842687894
 40
0.059
  0
CIRCLE
  8
02___PRT_ALL_AXES
 62
7
  6
CONTINUOUS
 10
2.1536335194
 20
0.9534470852
 40
0.059
  0
CIRCLE
  8
02___PRT_ALL_AXES
 62
7
  6
CONTINUOUS
 10
2.1536335194
 20
1.6150904937
 40
0.059
  0
CIRCLE
  8
02___PRT_ALL_AXES
 62
7
  6
CONTINUOUS
 10
4.0984265776
 20
1.2556390476
 40
0.3135
  0
CIRCLE
  8
02___PRT_ALL_AXES
 62
7
  6
CONTINUOUS
 10
4.0984265776
 20
1.2556390476
 40
0.2825
  0
ARC
  8
0
 62
7
  6
CONTINUOUS
 10
4.4734265776
 20
2.5236390476
 40
0.25
 50
0.0
 51
90.0
  0
ARC
  8
0
 62
7
  6
CONTINUOUS
 10
3.7234265776
 20
2.5236390476
 40
0.25
 50
90.0
 51
180.0
  0
ARC
  8
0
 62
7
  6
CONTINUOUS
 10
3.7234265776
 20
1.0993890476
 40
0.25
 50
180.0
 51
270.0
  0
ARC
  8
0
 62
7
  6
CONTINUOUS
 10
4.4734265776
 20
1.0993890476
 40
0.25
 50
270.0
 51
360.0
  0
CIRCLE
  8
02___PRT_ALL_AXES
 62
7
  6
CONTINUOUS
 10
3.6984265776
 20
2.4936390476
 40
0.1005
  0
CIRCLE
  8
02___PRT_ALL_AXES
 62
7
  6
CONTINUOUS
 10
4.4984265776
 20
2.4936390476
 40
0.1005
  0
CIRCLE
  8
02___PRT_ALL_AXES
 62
7
  6
CONTINUOUS
 10
3.7676048734
 20
1.0646390476
 40
0.059
  0
CIRCLE
  8
02___PRT_ALL_AXES
 62
7
  6
CONTINUOUS
 10
4.4292482819
 20
1.0646390476
 40
0.059
  0
CIRCLE
  8
02___PRT_ALL_AXES
 62
7
  6
CONTINUOUS
 10
4.0984265776
 20
1.6376390476
 40
0.059
  0
CIRCLE
  8
02___PRT_ALL_AXES
 62
7
  6
CONTINUOUS
 10
6.017434039
 20
1.2285254569
 40
0.3135
  0
CIRCLE
  8
02___PRT_ALL_AXES
 62
7
  6
CONTINUOUS
 10
6.017434039
 20
1.2285254569
 40
0.2825
  0
ARC
  8
0
 62
7
  6
CONTINUOUS
 10
6.392434039
 20
2.4965254569
 40
0.25
 50
0.0
 51
90.0
  0
ARC
  8
0
 62
7
  6
CONTINUOUS
 10
5.642434039
 20
2.4965254569
 40
0.25
 50
90.0
 51
180.0
  0
ARC
  8
0
 62
7
  6
CONTINUOUS
 10
5.642434039
 20
1.0722754569
 40
0.25
 50
180.0
 51
270.0
  0
ARC
  8
0
 62
7
  6
CONTINUOUS
 10
6.392434039
 20
1.0722754569
 40
0.25
 50
270.0
 51
360.0
  0
CIRCLE
  8
02___PRT_ALL_AXES
 62
7
  6
CONTINUOUS
 10
5.617434039
 20
2.4665254569
 40
0.1005
  0
CIRCLE
  8
02___PRT_ALL_AXES
 62
7
  6
CONTINUOUS
 10
6.417434039
 20
2.4665254569
 40
0.1005
  0
CIRCLE
  8
02___PRT_ALL_AXES
 62
7
  6
CONTINUOUS
 10
5.6866123347
 20
1.0375254569
 40
0.059
  0
CIRCLE
  8
02___PRT_ALL_AXES
 62
7
  6
CONTINUOUS
 10
6.3482557432
 20
1.0375254569
 40
0.059
  0
CIRCLE
  8
02___PRT_ALL_AXES
 62
7
  6
CONTINUOUS
 10
6.017434039
 20
1.6105254569
 40
0.059
  0
ARC
  8
0
 62
7
  6
CONTINUOUS
 10
5.883868356
 20
3.7231022135
 40
0.25
 50
0.0
 51
90.0
  0
ARC
  8
0
 62
7
  6
CONTINUOUS
 10
3.383868356
 20
3.7231022135
 40
0.25
 50
90.0
 51
180.0
  0
CIRCLE
  8
02___PRT_ALL_AXES
 62
7
  6
CONTINUOUS
 10
5.883868356
 20
3.3481022135
 40
0.0625
  0
CIRCLE
  8
02___PRT_ALL_AXES
 62
7
  6
CONTINUOUS
 10
3.383868356
 20
3.3481022135
 40
0.0625
  0
ARC
  8
0
 62
7
  6
CONTINUOUS
 10
3.864368356
 20
3.6635491135
 40
0.059
 50
270.0
 51
90.0
  0
ARC
  8
0
 62
7
  6
CONTINUOUS
 10
5.403368356
 20
3.6635491135
 40
0.059
 50
90.0
 51
270.0
  0
ARC
  8
0
 62
7
  6
CONTINUOUS
 10
3.758868356
 20
3.5600491135
 40
0.0465
 50
180.0
 51
360.0
  0
ARC
  8
0
 62
7
  6
CONTINUOUS
 10
3.758868356
 20
3.7670491135
 40
0.0465
 50
0.0
 51
180.0
  0
ARC
  8
0
 62
7
  6
CONTINUOUS
 10
5.508868356
 20
3.5600491135
 40
0.0465
 50
180.0
 51
360.0
  0
ARC
  8
0
 62
7
  6
CONTINUOUS
 10
5.508868356
 20
3.7670491135
 40
0.0465
 50
0.0
 51
180.0
  0
ARC
  8
0
 62
7
  6
CONTINUOUS
 10
10.838484434
 20
5.4315451415
 40
0.125
 50
90.0
 51
180.0
  0
ARC
  8
0
 62
7
  6
CONTINUOUS
 10
10.838484434
 20
2.9315451415
 40
0.125
 50
180.0
 51
270.0
  0
ARC
  8
0
 62
7
  6
CONTINUOUS
 10
12.463484434
 20
2.9315451415
 40
0.125
 50
270.0
 51
360.0
  0
ARC
  8
0
 62
7
  6
CONTINUOUS
 10
12.463484434
 20
5.4315451415
 40
0.125
 50
0.0
 51
90.0
  0
CIRCLE
  8
0
 62
7
  6
CONTINUOUS
 10
11.088484434
 20
3.2002459289
 40
0.117
  0
CIRCLE
  8
0
 62
7
  6
CONTINUOUS
 10
12.213484434
 20
3.2002459289
 40
0.117
  0
ARC
  8
0
 62
7
  6
CONTINUOUS
 10
11.115984434
 20
4.6643049841
 40
0.0787401575
 50
0.0
 51
180.0
  0
ARC
  8
0
 62
7
  6
CONTINUOUS
 10
11.115984434
 20
4.446785299
 40
0.0787401575
 50
180.0
 51
360.0
  0
ARC
  8
0
 62
7
  6
CONTINUOUS
 10
11.560984434
 20
5.1093049841
 40
0.0787401575
 50
0.0
 51
180.0
  0
ARC
  8
0
 62
7
  6
CONTINUOUS
 10
11.560984434
 20
4.891785299
 40
0.0787401575
 50
180.0
 51
360.0
  0
ENDSEC
  0
EOF
